  0
SECTION
  2
HEADER
  9
$ACADVER
  1
AC1018
  9
$ACADMAINTVER
 70
     0
  9
$DWGCODEPAGE
  3
ANSI_1252
  9
$INSBASE
 10
0.0
 20
0.0
 30
0.0
  9
$EXTMIN
 10
1.000000000000000E+20
 20
1.000000000000000E+20
 30
1.000000000000000E+20
  9
$EXTMAX
 10
-1.000000000000000E+20
 20
-1.000000000000000E+20
 30
-1.000000000000000E+20
  9
$LIMMIN
 10
0.0
 20
0.0
  9
$LIMMAX
 10
12.0
 20
9.0
  9
$ORTHOMODE
 70
     0
  9
$REGENMODE
 70
     1
  9
$FILLMODE
 70
     1
  9
$QTEXTMODE
 70
     0
  9
$MIRRTEXT
 70
     1
  9
$LTSCALE
 40
1.0
  9
$ATTMODE
 70
     1
  9
$TEXTSIZE
 40
0.2
  9
$TRACEWID
 40
0.05
  9
$TEXTSTYLE
  7
Standard
  9
$CLAYER
  8
0
  9
$CELTYPE
  6
ByLayer
  9
$CECOLOR
 62
   256
  9
$CELTSCALE
 40
1.0
  9
$DISPSILH
 70
     0
  9
$DIMSCALE
 40
1.0
  9
$DIMASZ
 40
0.18
  9
$DIMEXO
 40
0.0625
  9
$DIMDLI
 40
0.38
  9
$DIMRND
 40
0.0
  9
$DIMDLE
 40
0.0
  9
$DIMEXE
 40
0.18
  9
$DIMTP
 40
0.0
  9
$DIMTM
 40
0.0
  9
$DIMTXT
 40
0.18
  9
$DIMCEN
 40
0.09
  9
$DIMTSZ
 40
0.0
  9
$DIMTOL
 70
     0
  9
$DIMLIM
 70
     0
  9
$DIMTIH
 70
     1
  9
$DIMTOH
 70
     1
  9
$DIMSE1
 70
     0
  9
$DIMSE2
 70
     0
  9
$DIMTAD
 70
     0
  9
$DIMZIN
 70
     0
  9
$DIMBLK
  1

  9
$DIMASO
 70
     1
  9
$DIMSHO
 70
     1
  9
$DIMPOST
  1

  9
$DIMAPOST
  1

  9
$DIMALT
 70
     0
  9
$DIMALTD
 70
     2
  9
$DIMALTF
 40
25.4
  9
$DIMLFAC
 40
1.0
  9
$DIMTOFL
 70
     0
  9
$DIMTVP
 40
0.0
  9
$DIMTIX
 70
     0
  9
$DIMSOXD
 70
     0
  9
$DIMSAH
 70
     0
  9
$DIMBLK1
  1

  9
$DIMBLK2
  1

  9
$DIMSTYLE
  2
Standard
  9
$DIMCLRD
 70
     0
  9
$DIMCLRE
 70
     0
  9
$DIMCLRT
 70
     0
  9
$DIMTFAC
 40
1.0
  9
$DIMGAP
 40
0.09
  9
$DIMJUST
 70
     0
  9
$DIMSD1
 70
     0
  9
$DIMSD2
 70
     0
  9
$DIMTOLJ
 70
     1
  9
$DIMTZIN
 70
     0
  9
$DIMALTZ
 70
     0
  9
$DIMALTTZ
 70
     0
  9
$DIMUPT
 70
     0
  9
$DIMDEC
 70
     4
  9
$DIMTDEC
 70
     4
  9
$DIMALTU
 70
     2
  9
$DIMALTTD
 70
     2
  9
$DIMTXSTY
  7
Standard
  9
$DIMAUNIT
 70
     0
  9
$DIMADEC
 70
     0
  9
$DIMALTRND
 40
0.0
  9
$DIMAZIN
 70
     0
  9
$DIMDSEP
 70
    46
  9
$DIMATFIT
 70
     3
  9
$DIMFRAC
 70
     0
  9
$DIMLDRBLK
  1

  9
$DIMLUNIT
 70
     2
  9
$DIMLWD
 70
    -2
  9
$DIMLWE
 70
    -2
  9
$DIMTMOVE
 70
     0
  9
$LUNITS
 70
     2
  9
$LUPREC
 70
     4
  9
$SKETCHINC
 40
0.1
  9
$FILLETRAD
 40
0.5
  9
$AUNITS
 70
     0
  9
$AUPREC
 70
     0
  9
$MENU
  1
.
  9
$ELEVATION
 40
0.0
  9
$PELEVATION
 40
0.0
  9
$THICKNESS
 40
0.0
  9
$LIMCHECK
 70
     0
  9
$CHAMFERA
 40
0.0
  9
$CHAMFERB
 40
0.0
  9
$CHAMFERC
 40
0.0
  9
$CHAMFERD
 40
0.0
  9
$SKPOLY
 70
     0
  9
$TDCREATE
 40
2458396.704679988
  9
$TDUCREATE
 40
2458396.621346655
  9
$TDUPDATE
 40
2458396.704681563
  9
$TDUUPDATE
 40
2458396.621348229
  9
$TDINDWG
 40
0.0000000116
  9
$TDUSRTIMER
 40
0.0000000116
  9
$USRTIMER
 70
     1
  9
$ANGBASE
 50
0.0
  9
$ANGDIR
 70
     0
  9
$PDMODE
 70
    65
  9
$PDSIZE
 40
0.0
  9
$PLINEWID
 40
0.0
  9
$SPLFRAME
 70
     0
  9
$SPLINETYPE
 70
     6
  9
$SPLINESEGS
 70
     8
  9
$HANDSEED
  5
26C
  9
$SURFTAB1
 70
     6
  9
$SURFTAB2
 70
     6
  9
$SURFTYPE
 70
     6
  9
$SURFU
 70
     6
  9
$SURFV
 70
     6
  9
$UCSBASE
  2

  9
$UCSNAME
  2

  9
$UCSORG
 10
0.0
 20
0.0
 30
0.0
  9
$UCSXDIR
 10
1.0
 20
0.0
 30
0.0
  9
$UCSYDIR
 10
0.0
 20
1.0
 30
0.0
  9
$UCSORTHOREF
  2

  9
$UCSORTHOVIEW
 70
     0
  9
$UCSORGTOP
 10
0.0
 20
0.0
 30
0.0
  9
$UCSORGBOTTOM
 10
0.0
 20
0.0
 30
0.0
  9
$UCSORGLEFT
 10
0.0
 20
0.0
 30
0.0
  9
$UCSORGRIGHT
 10
0.0
 20
0.0
 30
0.0
  9
$UCSORGFRONT
 10
0.0
 20
0.0
 30
0.0
  9
$UCSORGBACK
 10
0.0
 20
0.0
 30
0.0
  9
$PUCSBASE
  2

  9
$PUCSNAME
  2

  9
$PUCSORG
 10
0.0
 20
0.0
 30
0.0
  9
$PUCSXDIR
 10
1.0
 20
0.0
 30
0.0
  9
$PUCSYDIR
 10
0.0
 20
1.0
 30
0.0
  9
$PUCSORTHOREF
  2

  9
$PUCSORTHOVIEW
 70
     0
  9
$PUCSORGTOP
 10
0.0
 20
0.0
 30
0.0
  9
$PUCSORGBOTTOM
 10
0.0
 20
0.0
 30
0.0
  9
$PUCSORGLEFT
 10
0.0
 20
0.0
 30
0.0
  9
$PUCSORGRIGHT
 10
0.0
 20
0.0
 30
0.0
  9
$PUCSORGFRONT
 10
0.0
 20
0.0
 30
0.0
  9
$PUCSORGBACK
 10
0.0
 20
0.0
 30
0.0
  9
$USERI1
 70
     0
  9
$USERI2
 70
     0
  9
$USERI3
 70
     0
  9
$USERI4
 70
     0
  9
$USERI5
 70
     0
  9
$USERR1
 40
0.0
  9
$USERR2
 40
0.0
  9
$USERR3
 40
0.0
  9
$USERR4
 40
0.0
  9
$USERR5
 40
0.0
  9
$WORLDVIEW
 70
     1
  9
$SHADEDGE
 70
     3
  9
$SHADEDIF
 70
    70
  9
$TILEMODE
 70
     1
  9
$MAXACTVP
 70
    64
  9
$PINSBASE
 10
0.0
 20
0.0
 30
0.0
  9
$PLIMCHECK
 70
     0
  9
$PEXTMIN
 10
1.000000000000000E+20
 20
1.000000000000000E+20
 30
1.000000000000000E+20
  9
$PEXTMAX
 10
-1.000000000000000E+20
 20
-1.000000000000000E+20
 30
-1.000000000000000E+20
  9
$PLIMMIN
 10
0.0
 20
0.0
  9
$PLIMMAX
 10
12.0
 20
9.0
  9
$UNITMODE
 70
     0
  9
$VISRETAIN
 70
     1
  9
$PLINEGEN
 70
     0
  9
$PSLTSCALE
 70
     1
  9
$TREEDEPTH
 70
  3020
  9
$CMLSTYLE
  2
Standard
  9
$CMLJUST
 70
     0
  9
$CMLSCALE
 40
1.0
  9
$PROXYGRAPHICS
 70
     1
  9
$MEASUREMENT
 70
     1
  9
$CELWEIGHT
370
    -1
  9
$ENDCAPS
280
     0
  9
$JOINSTYLE
280
     0
  9
$LWDISPLAY
290
     0
  9
$INSUNITS
 70
     6
  9
$HYPERLINKBASE
  1

  9
$STYLESHEET
  1

  9
$XEDIT
290
     1
  9
$CEPSNTYPE
380
     0
  9
$PSTYLEMODE
290
     1
  9
$FINGERPRINTGUID
  2
{53F9BD7D-2C44-4502-9BC2-DF2AB8C8E8CC}
  9
$VERSIONGUID
  2
{FAEB1C32-E019-11D5-929B-00C0DF256EC4}
  9
$EXTNAMES
290
     1
  9
$PSVPSCALE
 40
0.0
  9
$OLESTARTUP
290
     0
  9
$SORTENTS
280
   127
  9
$INDEXCTL
280
     0
  9
$HIDETEXT
280
     1
  9
$XCLIPFRAME
290
     0
  9
$HALOGAP
280
     0
  9
$OBSCOLOR
 70
   257
  9
$OBSLTYPE
280
     0
  9
$INTERSECTIONDISPLAY
280
     0
  9
$INTERSECTIONCOLOR
 70
   257
  9
$DIMASSOC
280
     2
  9
$PROJECTNAME
  1

  0
ENDSEC
  0
SECTION
  2
CLASSES
  0
CLASS
  1
ACDBDICTIONARYWDFLT
  2
AcDbDictionaryWithDefault
  3
ObjectDBX Classes
 90
        0
 91
       21
280
     0
281
     0
  0
CLASS
  1
VISUALSTYLE
  2
AcDbVisualStyle
  3
ObjectDBX Classes
 90
     4095
 91
       21
280
     0
281
     0
  0
CLASS
  1
MATERIAL
  2
AcDbMaterial
  3
ObjectDBX Classes
 90
     1153
 91
       21
280
     0
281
     0
  0
CLASS
  1
SCALE
  2
AcDbScale
  3
ObjectDBX Classes
 90
     1153
 91
       21
280
     0
281
     0
  0
CLASS
  1
TABLESTYLE
  2
AcDbTableStyle
  3
ObjectDBX Classes
 90
     4095
 91
       21
280
     0
281
     0
  0
CLASS
  1
MLEADERSTYLE
  2
AcDbMLeaderStyle
  3
ACDB_MLEADERSTYLE_CLASS
 90
     4095
 91
       21
280
     0
281
     0
  0
CLASS
  1
SUN
  2
AcDbSun
  3
SCENEOE
 90
     1153
 91
       21
280
     0
281
     0
  0
CLASS
  1
DICTIONARYVAR
  2
AcDbDictionaryVar
  3
ObjectDBX Classes
 90
        0
 91
       20
280
     0
281
     0
  0
CLASS
  1
CELLSTYLEMAP
  2
AcDbCellStyleMap
  3
ObjectDBX Classes
 90
     1152
 91
       20
280
     0
281
     0
  0
ENDSEC
  0
SECTION
  2
TABLES
  0
TABLE
  2
VPORT
  5
8
102
{ACAD_XDICTIONARY
360
225
102
}
330
0
100
AcDbSymbolTable
 70
     1
  0
VPORT
  5
29
330
8
100
AcDbSymbolTableRecord
100
AcDbViewportTableRecord
  2
*Active
 70
     0
 10
0.0
 20
0.0
 11
1.0
 21
1.0
 12
10.42990654205607
 22
4.5
 13
0.0
 23
0.0
 14
0.5
 24
0.5
 15
0.5
 25
0.5
 16
0.0
 26
0.0
 36
1.0
 17
0.0
 27
0.0
 37
0.0
 40
9.0
 41
1.972972972850329
 42
50.0
 43
0.0
 44
0.0
 50
0.0
 51
0.0
 71
     0
 72
   100
 73
     1
 74
     3
 75
     0
 76
     0
 77
     0
 78
     0
281
     0
 65
     1
110
0.0
120
0.0
130
0.0
111
1.0
121
0.0
131
0.0
112
0.0
122
1.0
132
0.0
 79
     0
146
0.0
  0
ENDTAB
  0
TABLE
  2
LTYPE
  5
5
330
0
100
AcDbSymbolTable
 70
     3
  0
LTYPE
  5
14
330
5
100
AcDbSymbolTableRecord
100
AcDbLinetypeTableRecord
  2
ByBlock
 70
     0
  3

 72
    65
 73
     0
 40
0.0
  0
LTYPE
  5
15
330
5
100
AcDbSymbolTableRecord
100
AcDbLinetypeTableRecord
  2
ByLayer
 70
     0
  3

 72
    65
 73
     0
 40
0.0
  0
LTYPE
  5
16
330
5
100
AcDbSymbolTableRecord
100
AcDbLinetypeTableRecord
  2
Continuous
 70
     0
  3
Solid line
 72
    65
 73
     0
 40
0.0
  0
LTYPE
  5
6E
330
5
100
AcDbSymbolTableRecord
100
AcDbLinetypeTableRecord
  2
AUSGEZOGEN
 70
     0
  3
durchgezogene Linie
 72
    65
 73
     0
 40
0.0
  0
LTYPE
  5
70
330
5
100
AcDbSymbolTableRecord
100
AcDbLinetypeTableRecord
  2
VERDECKT2_S2
 70
     0
  3
Kurzgestrichelt
 72
    65
 73
     2
 40
0.004
 49
0.002
 74
     0
 49
-0.002
 74
     0
  0
ENDTAB
  0
TABLE
  2
LAYER
  5
2
330
0
100
AcDbSymbolTable
 70
     3
  0
LAYER
  5
10
330
2
100
AcDbSymbolTableRecord
100
AcDbLayerTableRecord
  2
0
 70
     0
 62
     7
  6
Continuous
370
    -3
390
F
  0
LAYER
  5
72
330
2
100
AcDbSymbolTableRecord
100
AcDbLayerTableRecord
  2
PROJEKT
 70
     0
 62
     7
  6
AUSGEZOGEN
370
    13
390
F
1001
AcCmTransparency
1071
 33554687
1001
AcAecLayerStandard
1000

1000
EXT0005681, an
  0
LAYER
  5
74
330
2
100
AcDbSymbolTableRecord
100
AcDbLayerTableRecord
  2
STANDARD
 70
     0
 62
     7
  6
AUSGEZOGEN
370
    25
390
F
1001
AcCmTransparency
1071
 33554687
1001
AcAecLayerStandard
1000

1000
STANDARD
  0
ENDTAB
  0
TABLE
  2
STYLE
  5
3
330
0
100
AcDbSymbolTable
 70
     2
  0
STYLE
  5
11
330
3
100
AcDbSymbolTableRecord
100
AcDbTextStyleTableRecord
  2
Standard
 70
     0
 40
0.0
 41
1.0
 50
0.0
 71
     0
 42
0.2
  3
txt
  4

  0
STYLE
  5
6F
330
3
100
AcDbSymbolTableRecord
100
AcDbTextStyleTableRecord
  2
ARIAL
 70
     0
 40
0.0
 41
1.0
 50
0.0
 71
     0
 42
0.2
  3
ARIAL.TTF
  4

1001
ACAD
1000
Arial
1071
       34
  0
ENDTAB
  0
TABLE
  2
VIEW
  5
6
330
0
100
AcDbSymbolTable
 70
     0
  0
ENDTAB
  0
TABLE
  2
UCS
  5
7
330
0
100
AcDbSymbolTable
 70
     0
  0
ENDTAB
  0
TABLE
  2
APPID
  5
9
330
0
100
AcDbSymbolTable
 70
     4
  0
APPID
  5
12
330
9
100
AcDbSymbolTableRecord
100
AcDbRegAppTableRecord
  2
ACAD
 70
     0
  0
APPID
  5
71
330
9
100
AcDbSymbolTableRecord
100
AcDbRegAppTableRecord
  2
AcCmTransparency
 70
     0
  0
APPID
  5
73
330
9
100
AcDbSymbolTableRecord
100
AcDbRegAppTableRecord
  2
AcAecLayerStandard
 70
     0
  0
APPID
  5
264
330
9
100
AcDbSymbolTableRecord
100
AcDbRegAppTableRecord
  2
ACAD_MLEADERVER
 70
     0
  0
ENDTAB
  0
TABLE
  2
DIMSTYLE
  5
A
330
0
100
AcDbSymbolTable
 70
     1
100
AcDbDimStyleTable
  0
DIMSTYLE
105
27
330
A
100
AcDbSymbolTableRecord
100
AcDbDimStyleTableRecord
  2
Standard
 70
     0
178
     0
340
11
  0
ENDTAB
  0
TABLE
  2
BLOCK_RECORD
  5
1
330
0
100
AcDbSymbolTable
 70
     5
  0
BLOCK_RECORD
  5
1F
330
1
100
AcDbSymbolTableRecord
100
AcDbBlockTableRecord
  2
*Model_Space
340
22
  0
BLOCK_RECORD
  5
1B
330
1
100
AcDbSymbolTableRecord
100
AcDbBlockTableRecord
  2
*Paper_Space
340
1E
  0
BLOCK_RECORD
  5
23
330
1
100
AcDbSymbolTableRecord
100
AcDbBlockTableRecord
  2
*Paper_Space0
340
26
  0
BLOCK_RECORD
  5
75
330
1
100
AcDbSymbolTableRecord
100
AcDbBlockTableRecord
  2
TB_2951
340
0
102
{BLKREFS
331
222
102
}
1001
ACAD
1000
DesignCenter Data
1002
{
1070
     1
1070
     6
1002
}
  0
BLOCK_RECORD
  5
85
330
1
100
AcDbSymbolTableRecord
100
AcDbBlockTableRecord
  2
TB_2977
340
0
102
{BLKREFS
331
221
102
}
1001
ACAD
1000
DesignCenter Data
1002
{
1070
     1
1070
     6
1002
}
  0
BLOCK_RECORD
  5
90
330
1
100
AcDbSymbolTableRecord
100
AcDbBlockTableRecord
  2
TB_3004
340
0
102
{BLKREFS
331
223
102
}
1001
ACAD
1000
DesignCenter Data
1002
{
1070
     1
1070
     6
1002
}
  0
BLOCK_RECORD
  5
21B
330
1
100
AcDbSymbolTableRecord
100
AcDbBlockTableRecord
  2
TB_7000
340
0
102
{BLKREFS
331
224
102
}
1001
ACAD
1000
DesignCenter Data
1002
{
1070
     1
1070
     6
1002
}
  0
ENDTAB
  0
ENDSEC
  0
SECTION
  2
BLOCKS
  0
BLOCK
  5
20
330
1F
100
AcDbEntity
  8
0
100
AcDbBlockBegin
  2
*Model_Space
 70
     0
 10
0.0
 20
0.0
 30
0.0
  3
*Model_Space
  1

  0
ENDBLK
  5
21
330
1F
100
AcDbEntity
  8
0
100
AcDbBlockEnd
  0
BLOCK
  5
1C
330
1B
100
AcDbEntity
 67
     1
  8
0
100
AcDbBlockBegin
  2
*Paper_Space
 70
     0
 10
0.0
 20
0.0
 30
0.0
  3
*Paper_Space
  1

  0
ENDBLK
  5
1D
330
1B
100
AcDbEntity
 67
     1
  8
0
100
AcDbBlockEnd
  0
BLOCK
  5
24
330
23
100
AcDbEntity
  8
0
100
AcDbBlockBegin
  2
*Paper_Space0
 70
     0
 10
0.0
 20
0.0
 30
0.0
  3
*Paper_Space0
  1

  0
ENDBLK
  5
25
330
23
100
AcDbEntity
  8
0
100
AcDbBlockEnd
  0
BLOCK
  5
76
330
75
100
AcDbEntity
  8
0
100
AcDbBlockBegin
  2
TB_2951
 70
     0
 10
0.0
 20
0.0
 30
0.0
  3
TB_2951
  1

  0
LINE
  5
78
330
75
100
AcDbEntity
  8
STANDARD
  6
AUSGEZOGEN
 62
     7
440
 33554687
370
    25
100
AcDbLine
 10
-0.0050980224609375
 20
-0.0050580444335937
 30
0.0
 11
-0.0050980224609375
 21
0.2919419555664062
 31
0.0
  0
LINE
  5
79
330
75
100
AcDbEntity
  8
STANDARD
  6
AUSGEZOGEN
 62
     7
440
 33554687
370
    25
100
AcDbLine
 10
0.2049019775390625
 20
-0.0050580444335937
 30
0.0
 11
-0.0050980224609375
 21
-0.0050580444335937
 31
0.0
  0
LINE
  5
7A
330
75
100
AcDbEntity
  8
STANDARD
  6
AUSGEZOGEN
 62
     7
440
 33554687
370
    25
100
AcDbLine
 10
-0.0050980224609375
 20
0.2919419555664062
 30
0.0
 11
0.2049019775390625
 21
0.2919419555664062
 31
0.0
  0
LINE
  5
7B
330
75
100
AcDbEntity
  8
STANDARD
  6
AUSGEZOGEN
 62
     7
440
 33554687
370
    25
100
AcDbLine
 10
0.2049019775390625
 20
-0.0050580444335937
 30
0.0
 11
0.2049019775390625
 21
0.2919419555664062
 31
0.0
  0
MTEXT
  5
7C
330
75
100
AcDbEntity
  8
STANDARD
  6
AUSGEZOGEN
 62
     7
440
 33554687
370
    25
100
AcDbMText
 10
0.02013330078125
 20
0.2591166381835938
 30
0.0
 40
0.0025
 41
0.0037839279895732
 71
     7
 72
     5
  1
\W0.99;D
  7
ARIAL
 73
     1
 44
1.0
  0
MTEXT
  5
7D
330
75
100
AcDbEntity
  8
STANDARD
  6
AUSGEZOGEN
 62
     7
440
 33554687
370
    25
100
AcDbMText
 10
0.02013330078125
 20
0.2541166381835938
 30
0.0
 40
0.0025
 41
0.006706237616217
 71
     7
 72
     5
  1
\W1.00;D 9
  7
ARIAL
 73
     1
 44
1.0
  0
MTEXT
  5
7E
330
75
100
AcDbEntity
  8
STANDARD
  6
AUSGEZOGEN
 62
     7
440
 33554687
370
    25
100
AcDbMText
 10
0.0201337890625
 20
0.2822459716796875
 30
0.0
 40
0.0025
 41
0.0254339266549464
 71
     7
 72
     5
  1
\W0.94;Baudepartement
  7
ARIAL
 73
     1
 44
1.0
  0
MTEXT
  5
7F
330
75
100
AcDbEntity
  8
STANDARD
  6
AUSGEZOGEN
 62
     7
440
 33554687
370
    25
100
AcDbMText
 10
0.0201337890625
 20
0.27565380859375
 30
0.0
 40
0.004
 41
0.029482635450324
 71
     7
 72
     5
  1
\W0.98;Tiefbauamt
  7
ARIAL
 73
     1
 44
1.0
  0
MTEXT
  5
80
330
75
100
AcDbEntity
  8
STANDARD
  6
AUSGEZOGEN
 62
     7
440
 33554687
370
    13
100
AcDbMText
 10
0.0201337890625
 20
0.27044189453125
 30
0.0
 40
0.002
 41
0.0361502979939861
 71
     7
 72
     5
  1
\W0.97;R17.04 Normalien Standards
  7
ARIAL
 73
     1
 44
1.0
  0
MTEXT
  5
81
330
75
100
AcDbEntity
  8
STANDARD
  6
AUSGEZOGEN
 62
     7
440
 33554687
370
    25
100
AcDbMText
 10
0.160474365234375
 20
0.0030323486328125
 30
0.0
 40
0.0025
 41
0.0356942625073671
 71
     7
 72
     5
  1
\W1.01;www.sz.ch/tiefbauamt
  7
ARIAL
 73
     1
 44
1.0
  0
MTEXT
  5
82
330
75
100
AcDbEntity
  8
STANDARD
  6
AUSGEZOGEN
 62
     7
440
 33554687
370
    25
100
AcDbMText
 10
0.0417681274414063
 20
0.2591166381835938
 30
0.0
 40
0.0025
 41
0.0301009053754189
 71
     7
 72
     5
  1
\W1.02;Projektgrundlagen
  7
ARIAL
 73
     1
 44
1.0
  0
MTEXT
  5
83
330
75
100
AcDbEntity
  8
STANDARD
  6
AUSGEZOGEN
 62
     7
440
 33554687
370
    25
100
AcDbMText
 10
0.0417681274414063
 20
0.2541166381835938
 30
0.0
 40
0.0025
 41
0.0275334400990482
 71
     7
 72
     5
  1
\W1.02;Randabschlüsse
  7
ARIAL
 73
     1
 44
1.0
  0
MTEXT
  5
84
330
75
100
AcDbEntity
  8
STANDARD
  6
AUSGEZOGEN
 62
     7
440
 33554687
370
    25
100
AcDbMText
 10
0.0201657104492187
 20
0.0030320434570312
 30
0.0
 40
0.0025
 41
0.0388686283545537
 71
     7
 72
     5
  1
\W0.99;Version 1.0: 01.12.2015
  7
ARIAL
 73
     1
 44
1.0
  0
ENDBLK
  5
77
330
75
100
AcDbEntity
  8
0
100
AcDbBlockEnd
  0
BLOCK
  5
86
330
85
100
AcDbEntity
  8
0
100
AcDbBlockBegin
  2
TB_2977
 70
     0
 10
0.0
 20
0.0
 30
0.0
  3
TB_2977
  1

  0
MTEXT
  5
88
330
85
100
AcDbEntity
  8
STANDARD
  6
AUSGEZOGEN
 62
     7
440
 33554687
370
    25
100
AcDbMText
 10
0.0419552612304687
 20
0.0486585693359375
 30
0.0
 40
0.0025
 41
0.0240890159847485
 71
     7
 72
     5
  1
\A1;{\L\fArial|i0|b0;\H0.002500;\W1.000000;\C7;Bemerkungen:\l}\P
  7
ARIAL
 73
     1
 44
1.0
  0
MTEXT
  5
89
330
85
100
AcDbEntity
  8
STANDARD
  6
AUSGEZOGEN
 62
     7
440
 33554687
370
    25
100
AcDbMText
 10
0.0419552612304687
 20
0.0436585693359375
 30
0.0
 40
0.0025
 41
0.0592152913323213
 71
     7
 72
     5
  1
\W1.01;- Spezialkleber gemäss Steinlieferant
  7
ARIAL
 73
     1
 44
1.0
  0
MTEXT
  5
8A
330
85
100
AcDbEntity
  8
STANDARD
  6
AUSGEZOGEN
 62
     7
440
 33554687
370
    25
100
AcDbMText
 10
0.0419552612304687
 20
0.038491943359375
 30
0.0
 40
0.0025
 41
0.0698384728475044
 71
     7
 72
     5
  1
\W1.00;- Fugen mit frost-tausalzbeständigem Mörtel
  7
ARIAL
 73
     1
 44
1.0
  0
MTEXT
  5
8B
330
85
100
AcDbEntity
  8
STANDARD
  6
AUSGEZOGEN
 62
     7
440
 33554687
370
    25
100
AcDbMText
 10
0.0419552612304687
 20
0.0334085693359375
 30
0.0
 40
0.0025
 41
0.0975896038183667
 71
     7
 72
     5
  1
\W1.01;- Asphalt bzw. Beton reinigen und auftragen eines Haftklebers
  7
ARIAL
 73
     1
 44
1.0
  0
MTEXT
  5
8C
330
85
100
AcDbEntity
  8
STANDARD
  6
AUSGEZOGEN
 62
     7
440
 33554687
370
    25
100
AcDbMText
 10
0.0199880981445313
 20
0.2462451782226563
 30
0.0
 40
0.004
 41
0.0185364025522979
 71
     7
 72
     5
  1
\A1;{\fArial|i0|b1;\H0.004000;\W1.000000;\C7;D 9.63}\P
  7
ARIAL
 73
     1
 44
1.0
  0
MTEXT
  5
8D
330
85
100
AcDbEntity
  8
STANDARD
  6
AUSGEZOGEN
 62
     7
440
 33554687
370
    25
100
AcDbMText
 10
0.0419552612304687
 20
0.2462451782226563
 30
0.0
 40
0.004
 41
0.0423218671610863
 71
     7
 72
     5
  1
\A1;{\fArial|i0|b1;\H0.004000;\W1.000000;\C7;Inselabschluss}\P
  7
ARIAL
 73
     1
 44
1.0
  0
MTEXT
  5
8E
330
85
100
AcDbEntity
  8
STANDARD
  6
AUSGEZOGEN
 62
     7
440
 33554687
370
    25
100
AcDbMText
 10
0.0419552612304687
 20
0.2313284912109375
 30
0.0
 40
0.004
 41
0.1090461392555125
 71
     7
 72
     5
  1
\A1;{\fArial|i0|b1;\H0.004000;\W1.000000;\C7;Verlegeprofil mit Steintyp D 9.20 / D 9.22}\P
  7
ARIAL
 73
     1
 44
1.0
  0
MTEXT
  5
8F
330
85
100
AcDbEntity
  8
STANDARD
  6
AUSGEZOGEN
 62
     7
440
 33554687
370
    25
100
AcDbMText
 10
0.0419381103515625
 20
0.2263284912109375
 30
0.0
 40
0.0025
 41
0.0450396480478769
 71
     7
 72
     5
  1
\W1.00;Massstab 1:5 (Masse in cm)
  7
ARIAL
 73
     1
 44
1.0
  0
ENDBLK
  5
87
330
85
100
AcDbEntity
  8
0
100
AcDbBlockEnd
  0
BLOCK
  5
91
330
90
100
AcDbEntity
  8
0
100
AcDbBlockBegin
  2
TB_3004
 70
     0
 10
0.0
 20
0.0
 30
0.0
  3
TB_3004
  1

  0
HATCH
  5
93
330
90
100
AcDbEntity
  8
STANDARD
  6
AUSGEZOGEN
 62
   254
440
 33554687
370
    25
100
AcDbHatch
 10
0.0
 20
0.0
 30
0.0
210
0.0
220
0.0
230
1.0
  2
SOLID
 70
     1
 71
     0
 91
        1
 92
        3
 72
     0
 73
     1
 93
       16
 10
0.1026400146484375
 20
0.1254314575195312
 10
0.102598876953125
 20
0.1239793090820313
 10
0.1083397216796875
 20
0.1242675170898438
 10
0.1170034790039063
 20
0.1235540771484375
 10
0.1224591064453125
 20
0.123978271484375
 10
0.1282210693359375
 20
0.1242675170898438
 10
0.1368847045898438
 20
0.1235540771484375
 10
0.1405777587890625
 20
0.123978271484375
 10
0.1405777587890625
 20
0.1369820556640625
 10
0.1085777587890625
 20
0.1449820556640625
 10
0.1025777587890625
 20
0.1449820556640625
 10
0.1025777587890625
 20
0.1409820556640625
 10
0.1030396118164063
 20
0.1346265258789063
 10
0.1024281005859375
 20
0.129326416015625
 10
0.1025777587890625
 20
0.1242321166992188
 10
0.1025849609375
 20
0.1241461791992187
 97
        0
 75
     0
 76
     1
 98
        0
  0
HATCH
  5
94
330
90
100
AcDbEntity
  8
STANDARD
  6
AUSGEZOGEN
 62
   254
440
 33554687
370
    25
100
AcDbHatch
 10
0.0
 20
0.0
 30
0.0
210
0.0
220
0.0
230
1.0
  2
SOLID
 70
     1
 71
     0
 91
        1
 92
        3
 72
     0
 73
     1
 93
        3
 10
0.1025777587890625
 20
0.123978271484375
 10
0.102598876953125
 20
0.1239793090820313
 10
0.1025849609375
 20
0.1241461791992187
 97
        0
 75
     0
 76
     1
 98
        0
  0
HATCH
  5
95
330
90
100
AcDbEntity
  8
STANDARD
  6
AUSGEZOGEN
 62
   254
440
 33554687
370
    25
100
AcDbHatch
 10
0.0
 20
0.0
 30
0.0
210
0.0
220
0.0
230
1.0
  2
SOLID
 70
     1
 71
     0
 91
        1
 92
        3
 72
     0
 73
     1
 93
       14
 10
0.07728369140625
 20
0.147029052734375
 10
0.0573488159179688
 20
0.148642333984375
 10
0.0570382080078125
 20
0.1458729858398438
 10
0.0576632080078125
 20
0.1384412841796875
 10
0.0576575317382813
 20
0.1363956909179687
 10
0.0570465698242188
 20
0.13046533203125
 10
0.0578096923828125
 20
0.12954296875
 10
0.0635762329101563
 20
0.129366455078125
 10
0.0721541137695313
 20
0.1279564819335937
 10
0.0737575073242187
 20
0.1282523193359375
 10
0.07370849609375
 20
0.1292045288085938
 10
0.07537890625
 20
0.1349274291992187
 10
0.0757532958984375
 20
0.1369384765625
 10
0.076478759765625
 20
0.1443611450195313
 97
        0
 75
     0
 76
     1
 98
        0
  0
HATCH
  5
96
330
90
100
AcDbEntity
  8
STANDARD
  6
AUSGEZOGEN
 62
   254
440
 33554687
370
    25
100
AcDbHatch
 10
0.0
 20
0.0
 30
0.0
210
0.0
220
0.0
230
1.0
  2
SOLID
 70
     1
 71
     0
 91
        1
 92
        3
 72
     0
 73
     1
 93
       14
 10
0.0999862670898437
 20
0.1451917724609375
 10
0.0800514526367188
 20
0.1468050537109375
 10
0.0797408447265625
 20
0.1440357055664062
 10
0.0803657836914062
 20
0.1366039428710938
 10
0.0803601684570313
 20
0.1345584106445313
 10
0.0797492065429688
 20
0.1286280517578125
 10
0.0805123291015625
 20
0.1277056884765625
 10
0.08627880859375
 20
0.1275291748046875
 10
0.0948567504882813
 20
0.1261192016601562
 10
0.0964601440429688
 20
0.1264150390625
 10
0.0964111328125
 20
0.1273672485351562
 10
0.09808154296875
 20
0.1330902709960937
 10
0.0984559326171875
 20
0.1351012573242188
 10
0.099181396484375
 20
0.1425238647460937
 97
        0
 75
     0
 76
     1
 98
        0
  0
HATCH
  5
97
330
90
100
AcDbEntity
  8
STANDARD
  6
AUSGEZOGEN
 62
   254
440
 33554687
370
    25
100
AcDbHatch
 10
0.0
 20
0.0
 30
0.0
210
0.0
220
0.0
230
1.0
  2
SOLID
 70
     1
 71
     0
 91
        1
 92
        3
 72
     0
 73
     1
 93
       14
 10
0.0545810546875
 20
0.1488663330078125
 10
0.034646240234375
 20
0.1504796142578125
 10
0.0343355712890625
 20
0.1477102661132813
 10
0.0349605712890625
 20
0.1402784423828125
 10
0.0349549560546875
 20
0.13823291015625
 10
0.0343439331054688
 20
0.1323026123046875
 10
0.0351071166992188
 20
0.1313802490234375
 10
0.0408735961914063
 20
0.1312037353515625
 10
0.0494515380859375
 20
0.1297937622070313
 10
0.0510549926757813
 20
0.1300895385742188
 10
0.051005859375
 20
0.1310418701171875
 10
0.05267626953125
 20
0.1367647094726563
 10
0.0530507202148437
 20
0.1387757568359375
 10
0.053776123046875
 20
0.1461984252929688
 97
        0
 75
     0
 76
     1
 98
        0
  0
HATCH
  5
98
330
90
100
AcDbEntity
  8
STANDARD
  6
AUSGEZOGEN
 62
   254
440
 33554687
370
    25
100
AcDbHatch
 10
0.0
 20
0.0
 30
0.0
210
0.0
220
0.0
230
1.0
  2
SOLID
 70
     1
 71
     0
 91
        1
 92
        3
 72
     0
 73
     1
 93
        6
 10
0.0284374389648437
 20
0.1509820556640625
 10
0.0284374389648437
 20
0.1333385620117188
 10
0.0299736938476562
 20
0.1386019897460938
 10
0.0303480834960938
 20
0.140613037109375
 10
0.0310735473632813
 20
0.14803564453125
 10
0.03187841796875
 20
0.15070361328125
 97
        0
 75
     0
 76
     1
 98
        0
  0
HATCH
  5
99
330
90
100
AcDbEntity
  8
STANDARD
  6
AUSGEZOGEN
 62
   255
440
 33554687
370
    25
100
AcDbHatch
 10
0.0
 20
0.0
 30
0.0
210
0.0
220
0.0
230
1.0
  2
SOLID
 70
     1
 71
     0
 91
        1
 92
        3
 72
     0
 73
     1
 93
       11
 10
0.0985777587890625
 20
0.1169820556640625
 10
0.1425787353515625
 20
0.1169820556640625
 10
0.1445777587890625
 20
0.1169820556640625
 10
0.1861743774414062
 20
0.1169819946289063
 10
0.186182373046875
 20
0.122978271484375
 10
0.1676185302734375
 20
0.122978271484375
 10
0.1676184692382812
 20
0.1229820556640625
 10
0.1405777587890625
 20
0.122978271484375
 10
0.1025777587890625
 20
0.1239783325195312
 10
0.1405772094726563
 20
0.122978271484375
 10
0.0985777587890625
 20
0.122978271484375
 97
        0
 75
     0
 76
     1
 98
        0
  0
HATCH
  5
9A
330
90
100
AcDbEntity
  8
STANDARD
  6
AUSGEZOGEN
 62
   255
440
 33554687
370
    25
100
AcDbHatch
 10
0.0
 20
0.0
 30
0.0
210
0.0
220
0.0
230
1.0
  2
SOLID
 70
     1
 71
     0
 91
        1
 92
        3
 72
     0
 73
     1
 93
        4
 10
0.0284374389648437
 20
0.1169820556640625
 10
0.0885777587890625
 20
0.1169820556640625
 10
0.0885777587890625
 20
0.122978271484375
 10
0.0284374389648437
 20
0.122978271484375
 97
        0
 75
     0
 76
     1
 98
        0
  0
LINE
  5
9B
330
90
100
AcDbEntity
  8
STANDARD
  6
AUSGEZOGEN
 62
     7
440
 33554687
370
    13
100
AcDbLine
 10
0.0979972445795875
 20
0.132801513671875
 30
0.0
 11
0.1028290595680779
 21
0.132801513671875
 31
0.0
  0
LINE
  5
9C
330
90
100
AcDbEntity
  8
STANDARD
  6
AUSGEZOGEN
 62
     7
440
 33554687
370
    13
100
AcDbLine
 10
0.09852437361765
 20
0.135801513671875
 30
0.0
 11
0.1029542260676773
 21
0.135801513671875
 31
0.0
  0
LINE
  5
9D
330
90
100
AcDbEntity
  8
STANDARD
  6
AUSGEZOGEN
 62
     7
440
 33554687
370
    13
100
AcDbLine
 10
0.0988175848139135
 20
0.138801513671875
 30
0.0
 11
0.1027362176358284
 21
0.138801513671875
 31
0.0
  0
LINE
  5
9E
330
90
100
AcDbEntity
  8
STANDARD
  6
AUSGEZOGEN
 62
     7
440
 33554687
370
    13
100
AcDbLine
 10
0.099110796010177
 20
0.141801513671875
 30
0.0
 11
0.1025777587890625
 21
0.141801513671875
 31
0.0
  0
LINE
  5
9F
330
90
100
AcDbEntity
  8
STANDARD
  6
AUSGEZOGEN
 62
     7
440
 33554687
370
    13
100
AcDbLine
 10
0.0998685314477544
 20
0.144801513671875
 30
0.0
 11
0.1025777587890625
 21
0.144801513671875
 31
0.0
  0
LINE
  5
A0
330
90
100
AcDbEntity
  8
STANDARD
  6
AUSGEZOGEN
 62
     7
440
 33554687
370
    13
100
AcDbLine
 10
0.0983070312588918
 20
0.1343014526367187
 30
0.0
 11
0.103002108011363
 21
0.1343014526367187
 31
0.0
  0
LINE
  5
A1
330
90
100
AcDbEntity
  8
STANDARD
  6
AUSGEZOGEN
 62
     7
440
 33554687
370
    13
100
AcDbLine
 10
0.0986709732503847
 20
0.1373014526367188
 30
0.0
 11
0.1028452262871457
 21
0.1373014526367188
 31
0.0
  0
LINE
  5
A2
330
90
100
AcDbEntity
  8
STANDARD
  6
AUSGEZOGEN
 62
     7
440
 33554687
370
    13
100
AcDbLine
 10
0.0989641844466482
 20
0.1403014526367188
 30
0.0
 11
0.1026272178552968
 21
0.1403014526367188
 31
0.0
  0
LINE
  5
A3
330
90
100
AcDbEntity
  8
STANDARD
  6
AUSGEZOGEN
 62
     7
440
 33554687
370
    13
100
AcDbLine
 10
0.0994159839226325
 20
0.1433014526367188
 30
0.0
 11
0.1025777587890625
 21
0.1433014526367188
 31
0.0
  0
LINE
  5
A4
330
90
100
AcDbEntity
  8
STANDARD
  6
AUSGEZOGEN
 62
     7
440
 33554687
370
    13
100
AcDbLine
 10
0.0523951285358558
 20
0.135801513671875
 30
0.0
 11
0.0575963038751204
 21
0.135801513671875
 31
0.0
  0
LINE
  5
A5
330
90
100
AcDbEntity
  8
STANDARD
  6
AUSGEZOGEN
 62
     7
440
 33554687
370
    13
100
AcDbLine
 10
0.0530532373799093
 20
0.138801513671875
 30
0.0
 11
0.057632913003665
 21
0.138801513671875
 31
0.0
  0
LINE
  5
A6
330
90
100
AcDbEntity
  8
STANDARD
  6
AUSGEZOGEN
 62
     7
440
 33554687
370
    13
100
AcDbLine
 10
0.0533464214967389
 20
0.141801513671875
 30
0.0
 11
0.057380615469972
 21
0.141801513671875
 31
0.0
  0
LINE
  5
A7
330
90
100
AcDbEntity
  8
STANDARD
  6
AUSGEZOGEN
 62
     7
440
 33554687
370
    13
100
AcDbLine
 10
0.0536396056135685
 20
0.144801513671875
 30
0.0
 11
0.0571283179362789
 21
0.144801513671875
 31
0.0
  0
LINE
  5
A8
330
90
100
AcDbEntity
  8
STANDARD
  6
AUSGEZOGEN
 62
     7
440
 33554687
370
    13
100
AcDbLine
 10
0.0542597891616062
 20
0.147801513671875
 30
0.0
 11
0.0572545101729153
 21
0.147801513671875
 31
0.0
  0
LINE
  5
A9
330
90
100
AcDbEntity
  8
STANDARD
  6
AUSGEZOGEN
 62
     7
440
 33554687
370
    13
100
AcDbLine
 10
0.052776209417484
 20
0.1373014526367188
 30
0.0
 11
0.0576600451155703
 21
0.1373014526367187
 31
0.0
  0
LINE
  5
AA
330
90
100
AcDbEntity
  8
STANDARD
  6
AUSGEZOGEN
 62
     7
440
 33554687
370
    13
100
AcDbLine
 10
0.053199823473478
 20
0.1403014526367188
 30
0.0
 11
0.057506769369825
 21
0.1403014526367188
 31
0.0
  0
LINE
  5
AB
330
90
100
AcDbEntity
  8
STANDARD
  6
AUSGEZOGEN
 62
     7
440
 33554687
370
    13
100
AcDbLine
 10
0.0534930075903076
 20
0.1433014526367188
 30
0.0
 11
0.0572544718361319
 21
0.1433014526367188
 31
0.0
  0
LINE
  5
AC
330
90
100
AcDbEntity
  8
STANDARD
  6
AUSGEZOGEN
 62
     7
440
 33554687
370
    13
100
AcDbLine
 10
0.0538072073187831
 20
0.1463014526367188
 30
0.0
 11
0.0570862645068163
 21
0.1463014526367188
 31
0.0
  0
LINE
  5
AD
330
90
100
AcDbEntity
  8
STANDARD
  6
AUSGEZOGEN
 62
     7
440
 33554687
370
    13
100
AcDbLine
 10
0.0300108385185337
 20
0.138801513671875
 30
0.0
 11
0.0349565169403901
 21
0.138801513671875
 31
0.0
  0
LINE
  5
AE
330
90
100
AcDbEntity
  8
STANDARD
  6
AUSGEZOGEN
 62
     7
440
 33554687
370
    13
100
AcDbLine
 10
0.0304642417076343
 20
0.141801513671875
 30
0.0
 11
0.0348324843496803
 21
0.141801513671875
 31
0.0
  0
LINE
  5
AF
330
90
100
AcDbEntity
  8
STANDARD
  6
AUSGEZOGEN
 62
     7
440
 33554687
370
    13
100
AcDbLine
 10
0.0307574529038979
 20
0.144801513671875
 30
0.0
 11
0.0345801909600627
 21
0.144801513671875
 31
0.0
  0
LINE
  5
B0
330
90
100
AcDbEntity
  8
STANDARD
  6
AUSGEZOGEN
 62
     7
440
 33554687
370
    13
100
AcDbLine
 10
0.0310506641001614
 20
0.147801513671875
 30
0.0
 11
0.0343458075545341
 21
0.147801513671875
 31
0.0
  0
LINE
  5
B1
330
90
100
AcDbEntity
  8
STANDARD
  6
AUSGEZOGEN
 62
     7
440
 33554687
370
    13
100
AcDbLine
 10
0.0310632419126912
 20
0.1373014526367188
 30
0.0
 11
0.034859013906468
 21
0.1373014526367188
 31
0.0
  0
LINE
  5
B2
330
90
100
AcDbEntity
  8
STANDARD
  6
AUSGEZOGEN
 62
     7
440
 33554687
370
    13
100
AcDbLine
 10
0.0302900769054454
 20
0.1403014526367188
 30
0.0
 11
0.0349586361774112
 21
0.1403014526367188
 31
0.0
  0
LINE
  5
B3
330
90
100
AcDbEntity
  8
STANDARD
  6
AUSGEZOGEN
 62
     7
440
 33554687
370
    13
100
AcDbLine
 10
0.030610841340369
 20
0.1433014526367188
 30
0.0
 11
0.0347063427877936
 21
0.1433014526367188
 31
0.0
  0
LINE
  5
B4
330
90
100
AcDbEntity
  8
STANDARD
  6
AUSGEZOGEN
 62
     7
440
 33554687
370
    13
100
AcDbLine
 10
0.0309040525366326
 20
0.1463014526367188
 30
0.0
 11
0.0344540493981761
 21
0.1463014526367188
 31
0.0
  0
LINE
  5
B5
330
90
100
AcDbEntity
  8
STANDARD
  6
AUSGEZOGEN
 62
     7
440
 33554687
370
    13
100
AcDbLine
 10
0.0314554153054211
 20
0.1493014526367188
 30
0.0
 11
0.034514072587286
 21
0.1493014526367188
 31
0.0
  0
LINE
  5
B6
330
90
100
AcDbEntity
  8
STANDARD
  6
AUSGEZOGEN
 62
     7
440
 33554687
370
    13
100
AcDbLine
 10
0.0755416314967533
 20
0.135801513671875
 30
0.0
 11
0.0803635809258059
 21
0.135801513671875
 31
0.0
  0
LINE
  5
B7
330
90
100
AcDbEntity
  8
STANDARD
  6
AUSGEZOGEN
 62
     7
440
 33554687
370
    13
100
AcDbLine
 10
0.0759353821810062
 20
0.138801513671875
 30
0.0
 11
0.0801809893596016
 21
0.138801513671875
 31
0.0
  0
LINE
  5
B8
330
90
100
AcDbEntity
  8
STANDARD
  6
AUSGEZOGEN
 62
     7
440
 33554687
370
    13
100
AcDbLine
 10
0.0762285909662512
 20
0.141801513671875
 30
0.0
 11
0.079928718536192
 21
0.141801513671875
 31
0.0
  0
LINE
  5
B9
330
90
100
AcDbEntity
  8
STANDARD
  6
AUSGEZOGEN
 62
     7
440
 33554687
370
    13
100
AcDbLine
 10
0.0766116229302085
 20
0.144801513671875
 30
0.0
 11
0.0798267371614628
 21
0.144801513671875
 31
0.0
  0
LINE
  5
BA
330
90
100
AcDbEntity
  8
STANDARD
  6
AUSGEZOGEN
 62
     7
440
 33554687
370
    13
100
AcDbLine
 10
0.0751961939980031
 20
0.1343014526367187
 30
0.0
 11
0.080333688535922
 21
0.1343014526367187
 31
0.0
  0
LINE
  5
BB
330
90
100
AcDbEntity
  8
STANDARD
  6
AUSGEZOGEN
 62
     7
440
 33554687
370
    13
100
AcDbLine
 10
0.0757887718230357
 20
0.1373014526367188
 30
0.0
 11
0.0803071299037694
 21
0.1373014526367188
 31
0.0
  0
LINE
  5
BC
330
90
100
AcDbEntity
  8
STANDARD
  6
AUSGEZOGEN
 62
     7
440
 33554687
370
    13
100
AcDbLine
 10
0.0760819806082807
 20
0.1403014526367188
 30
0.0
 11
0.0800548590803598
 21
0.1403014526367188
 31
0.0
  0
LINE
  5
BD
330
90
100
AcDbEntity
  8
STANDARD
  6
AUSGEZOGEN
 62
     7
440
 33554687
370
    13
100
AcDbLine
 10
0.0763751893935257
 20
0.1433014526367188
 30
0.0
 11
0.0798025882569502
 21
0.1433014526367188
 31
0.0
  0
LINE
  5
BE
330
90
100
AcDbEntity
  8
STANDARD
  6
AUSGEZOGEN
 62
     7
440
 33554687
370
    13
100
AcDbLine
 10
0.0770641679433255
 20
0.1463014526367188
 30
0.0
 11
0.0799949691362515
 21
0.1463014526367188
 31
0.0
  0
LINE
  5
BF
330
90
100
AcDbEntity
  8
STANDARD
  6
AUSGEZOGEN
 62
     7
440
 33554687
370
    25
100
AcDbLine
 10
0.034802734375
 20
0.0849641699220336
 30
0.0
 11
0.034802734375
 21
0.1029726582593789
 31
0.0
  0
LINE
  5
C0
330
90
100
AcDbEntity
  8
STANDARD
  6
AUSGEZOGEN
 62
     7
440
 33554687
370
    25
100
AcDbLine
 10
0.043802734375
 20
0.0849652020541221
 30
0.0
 11
0.043802734375
 21
0.1029731788923794
 31
0.0
  0
LINE
  5
C1
330
90
100
AcDbEntity
  8
STANDARD
  6
AUSGEZOGEN
 62
     7
440
 33554687
370
    25
100
AcDbLine
 10
0.052802734375
 20
0.0849662341862107
 30
0.0
 11
0.052802734375
 21
0.1029736995253798
 31
0.0
  0
LINE
  5
C2
330
90
100
AcDbEntity
  8
STANDARD
  6
AUSGEZOGEN
 62
     7
440
 33554687
370
    25
100
AcDbLine
 10
0.061802734375
 20
0.0849672663182992
 30
0.0
 11
0.061802734375
 21
0.1029742201583802
 31
0.0
  0
LINE
  5
C3
330
90
100
AcDbEntity
  8
STANDARD
  6
AUSGEZOGEN
 62
     7
440
 33554687
370
    25
100
AcDbLine
 10
0.070802734375
 20
0.0849682984503878
 30
0.0
 11
0.070802734375
 21
0.1029747407913806
 31
0.0
  0
LINE
  5
C4
330
90
100
AcDbEntity
  8
STANDARD
  6
AUSGEZOGEN
 62
     7
440
 33554687
370
    25
100
AcDbLine
 10
0.079802734375
 20
0.0849693305824763
 30
0.0
 11
0.079802734375
 21
0.102975261424381
 31
0.0
  0
LINE
  5
C5
330
90
100
AcDbEntity
  8
STANDARD
  6
AUSGEZOGEN
 62
     7
440
 33554687
370
    25
100
AcDbLine
 10
0.1068026733398438
 20
0.084974228568454
 30
0.0
 11
0.1068026733398438
 21
0.1029777364497923
 31
0.0
  0
LINE
  5
C6
330
90
100
AcDbEntity
  8
STANDARD
  6
AUSGEZOGEN
 62
     7
440
 33554687
370
    25
100
AcDbLine
 10
0.1158026733398438
 20
0.0849754815481876
 30
0.0
 11
0.1158026733398438
 21
0.1029784199463124
 31
0.0
  0
LINE
  5
C7
330
90
100
AcDbEntity
  8
STANDARD
  6
AUSGEZOGEN
 62
     7
440
 33554687
370
    25
100
AcDbLine
 10
0.1248026733398438
 20
0.0849767345279211
 30
0.0
 11
0.1248026733398438
 21
0.1029791034428326
 31
0.0
  0
LINE
  5
C8
330
90
100
AcDbEntity
  8
STANDARD
  6
AUSGEZOGEN
 62
     7
440
 33554687
370
    25
100
AcDbLine
 10
0.1338026733398437
 20
0.0849779875076547
 30
0.0
 11
0.1338026733398437
 21
0.1029797869393528
 31
0.0
  0
LINE
  5
C9
330
90
100
AcDbEntity
  8
STANDARD
  6
AUSGEZOGEN
 62
     7
440
 33554687
370
    25
100
AcDbLine
 10
0.1428026733398438
 20
0.0849792404873882
 30
0.0
 11
0.1428026733398438
 21
0.1029804704358729
 31
0.0
  0
LINE
  5
CA
330
90
100
AcDbEntity
  8
STANDARD
  6
AUSGEZOGEN
 62
     7
440
 33554687
370
    25
100
AcDbLine
 10
0.1518026733398438
 20
0.0849804934671218
 30
0.0
 11
0.1518026733398438
 21
0.1029811539323931
 31
0.0
  0
LINE
  5
CB
330
90
100
AcDbEntity
  8
STANDARD
  6
AUSGEZOGEN
 62
     7
440
 33554687
370
    25
100
AcDbLine
 10
0.1608026733398437
 20
0.0849817464468553
 30
0.0
 11
0.1608026733398437
 21
0.1029818374289132
 31
0.0
  0
LINE
  5
CC
330
90
100
AcDbEntity
  8
STANDARD
  6
AUSGEZOGEN
 62
     7
440
 33554687
370
    25
100
AcDbLine
 10
0.1698026733398437
 20
0.0849845900444226
 30
0.0
 11
0.1698026733398438
 21
0.1029825209254334
 31
0.0
  0
LINE
  5
CD
330
90
100
AcDbEntity
  8
STANDARD
  6
AUSGEZOGEN
 62
     7
440
 33554687
370
    25
100
AcDbLine
 10
0.1788026733398437
 20
0.084985444270128
 30
0.0
 11
0.1788026733398438
 21
0.1029832044219536
 31
0.0
  0
LINE
  5
CE
330
90
100
AcDbEntity
  8
STANDARD
  6
AUSGEZOGEN
 62
     7
440
 33554687
370
    25
100
AcDbLine
 10
0.0303026733398437
 20
0.0849636538489897
 30
0.0
 11
0.0303026733398437
 21
0.102972397939348
 31
0.0
  0
LINE
  5
CF
330
90
100
AcDbEntity
  8
STANDARD
  6
AUSGEZOGEN
 62
     7
440
 33554687
370
    25
100
AcDbLine
 10
0.0393026733398438
 20
0.0849646859810782
 30
0.0
 11
0.0393026733398438
 21
0.1029729185723484
 31
0.0
  0
LINE
  5
D0
330
90
100
AcDbEntity
  8
STANDARD
  6
AUSGEZOGEN
 62
     7
440
 33554687
370
    25
100
AcDbLine
 10
0.0483026733398437
 20
0.0849657181131668
 30
0.0
 11
0.0483026733398437
 21
0.1029734392053488
 31
0.0
  0
LINE
  5
D1
330
90
100
AcDbEntity
  8
STANDARD
  6
AUSGEZOGEN
 62
     7
440
 33554687
370
    25
100
AcDbLine
 10
0.0573026733398437
 20
0.0849667502452554
 30
0.0
 11
0.0573026733398437
 21
0.1029739598383492
 31
0.0
  0
LINE
  5
D2
330
90
100
AcDbEntity
  8
STANDARD
  6
AUSGEZOGEN
 62
     7
440
 33554687
370
    25
100
AcDbLine
 10
0.0663026733398438
 20
0.0849677823773439
 30
0.0
 11
0.0663026733398438
 21
0.1029744804713496
 31
0.0
  0
LINE
  5
D3
330
90
100
AcDbEntity
  8
STANDARD
  6
AUSGEZOGEN
 62
     7
440
 33554687
370
    25
100
AcDbLine
 10
0.0753026733398438
 20
0.0849688145094324
 30
0.0
 11
0.0753026733398438
 21
0.1029750011043501
 31
0.0
  0
LINE
  5
D4
330
90
100
AcDbEntity
  8
STANDARD
  6
AUSGEZOGEN
 62
     7
440
 33554687
370
    25
100
AcDbLine
 10
0.0843026733398437
 20
0.084969846641521
 30
0.0
 11
0.0843026733398437
 21
0.1029755217373505
 31
0.0
  0
LINE
  5
D5
330
90
100
AcDbEntity
  8
STANDARD
  6
AUSGEZOGEN
 62
     7
440
 33554687
370
    25
100
AcDbLine
 10
0.1023026733398437
 20
0.0849736020785872
 30
0.0
 11
0.1023026733398438
 21
0.1029773947015322
 31
0.0
  0
LINE
  5
D6
330
90
100
AcDbEntity
  8
STANDARD
  6
AUSGEZOGEN
 62
     7
440
 33554687
370
    25
100
AcDbLine
 10
0.1113026733398438
 20
0.0849748550583208
 30
0.0
 11
0.1113026733398438
 21
0.1029780781980524
 31
0.0
  0
LINE
  5
D7
330
90
100
AcDbEntity
  8
STANDARD
  6
AUSGEZOGEN
 62
     7
440
 33554687
370
    25
100
AcDbLine
 10
0.1203026733398437
 20
0.0849761080380543
 30
0.0
 11
0.1203026733398438
 21
0.1029787616945725
 31
0.0
  0
LINE
  5
D8
330
90
100
AcDbEntity
  8
STANDARD
  6
AUSGEZOGEN
 62
     7
440
 33554687
370
    25
100
AcDbLine
 10
0.1293026733398437
 20
0.0849773610177879
 30
0.0
 11
0.1293026733398437
 21
0.1029794451910927
 31
0.0
  0
LINE
  5
D9
330
90
100
AcDbEntity
  8
STANDARD
  6
AUSGEZOGEN
 62
     7
440
 33554687
370
    25
100
AcDbLine
 10
0.1383026733398438
 20
0.0849786139975214
 30
0.0
 11
0.1383026733398438
 21
0.1029801286876128
 31
0.0
  0
LINE
  5
DA
330
90
100
AcDbEntity
  8
STANDARD
  6
AUSGEZOGEN
 62
     7
440
 33554687
370
    25
100
AcDbLine
 10
0.1473026733398438
 20
0.084979866977255
 30
0.0
 11
0.1473026733398438
 21
0.102980812184133
 31
0.0
  0
LINE
  5
DB
330
90
100
AcDbEntity
  8
STANDARD
  6
AUSGEZOGEN
 62
     7
440
 33554687
370
    25
100
AcDbLine
 10
0.156302734375
 20
0.0849811199654859
 30
0.0
 11
0.156302734375
 21
0.1029814956852884
 31
0.0
  0
LINE
  5
DC
330
90
100
AcDbEntity
  8
STANDARD
  6
AUSGEZOGEN
 62
     7
440
 33554687
370
    25
100
AcDbLine
 10
0.165302734375
 20
0.084987569331152
 30
0.0
 11
0.165302734375
 21
0.1029821791818086
 31
0.0
  0
LINE
  5
DD
330
90
100
AcDbEntity
  8
STANDARD
  6
AUSGEZOGEN
 62
     7
440
 33554687
370
    25
100
AcDbLine
 10
0.174302734375
 20
0.0849850171630684
 30
0.0
 11
0.174302734375
 21
0.1029828626783287
 31
0.0
  0
LINE
  5
DE
330
90
100
AcDbEntity
  8
STANDARD
  6
AUSGEZOGEN
 62
     7
440
 33554687
370
    25
100
AcDbLine
 10
0.183302734375
 20
0.0849858713887738
 30
0.0
 11
0.183302734375
 21
0.1029835461748489
 31
0.0
  0
LINE
  5
DF
330
90
100
AcDbEntity
  8
STANDARD
  6
AUSGEZOGEN
 62
     7
440
 33554687
370
    35
100
AcDbLine
 10
0.0284374389648437
 20
0.1098870540676449
 30
0.0
 11
0.0355324109914854
 21
0.1169820556640625
 31
0.0
  0
LINE
  5
E0
330
90
100
AcDbEntity
  8
STANDARD
  6
AUSGEZOGEN
 62
     7
440
 33554687
370
    35
100
AcDbLine
 10
0.0328366192303628
 20
0.1029725445233315
 30
0.0
 11
0.0468461303710938
 21
0.1169820556640625
 31
0.0
  0
LINE
  5
E1
330
90
100
AcDbEntity
  8
STANDARD
  6
AUSGEZOGEN
 62
     7
440
 33554687
370
    35
100
AcDbLine
 10
0.0441509944487231
 20
0.1029731990385668
 30
0.0
 11
0.0581598510742188
 21
0.1169820556640625
 31
0.0
  0
LINE
  5
E2
330
90
100
AcDbEntity
  8
STANDARD
  6
AUSGEZOGEN
 62
     7
440
 33554687
370
    35
100
AcDbLine
 10
0.0554653683372279
 20
0.1029738535537252
 30
0.0
 11
0.0694735120657042
 21
0.1169820556640625
 31
0.0
  0
LINE
  5
E3
330
90
100
AcDbEntity
  8
STANDARD
  6
AUSGEZOGEN
 62
     7
440
 33554687
370
    35
100
AcDbLine
 10
0.0667797435528602
 20
0.1029745080689603
 30
0.0
 11
0.0807872327688292
 21
0.1169820556640625
 31
0.0
  0
LINE
  5
E4
330
90
100
AcDbEntity
  8
STANDARD
  6
AUSGEZOGEN
 62
     7
440
 33554687
370
    35
100
AcDbLine
 10
0.0780940590651168
 20
0.1029751625807418
 30
0.0
 11
0.0885777587890625
 21
0.1134588623046875
 31
0.0
  0
LINE
  5
E5
330
90
100
AcDbEntity
  8
STANDARD
  6
AUSGEZOGEN
 62
     7
440
 33554687
370
    35
100
AcDbLine
 10
0.0985777587890625
 20
0.1121451416015625
 30
0.0
 11
0.1034146694813228
 21
0.1169820522938228
 31
0.0
  0
LINE
  5
E6
330
90
100
AcDbEntity
  8
STANDARD
  6
AUSGEZOGEN
 62
     7
440
 33554687
370
    35
100
AcDbLine
 10
0.1007236113277433
 20
0.1029772747811555
 30
0.0
 11
0.1147283225897816
 21
0.1169820444107493
 31
0.0
  0
LINE
  5
E7
330
90
100
AcDbEntity
  8
STANDARD
  6
AUSGEZOGEN
 62
     7
440
 33554687
370
    35
100
AcDbLine
 10
0.1120381913024026
 20
0.102978134056271
 30
0.0
 11
0.1260420354098244
 21
0.1169820365276342
 31
0.0
  0
LINE
  5
E8
330
90
100
AcDbEntity
  8
STANDARD
  6
AUSGEZOGEN
 62
     7
440
 33554687
370
    35
100
AcDbLine
 10
0.1233527115885723
 20
0.1029789933268535
 30
0.0
 11
0.1373557469062387
 21
0.11698202864452
 31
0.0
  0
LINE
  5
E9
330
90
100
AcDbEntity
  8
STANDARD
  6
AUSGEZOGEN
 62
     7
440
 33554687
370
    35
100
AcDbLine
 10
0.1346672915668131
 20
0.1029798526019693
 30
0.0
 11
0.1486694597262486
 21
0.1169820207614048
 31
0.0
  0
LINE
  5
EA
330
90
100
AcDbEntity
  8
STANDARD
  6
AUSGEZOGEN
 62
     7
440
 33554687
370
    35
100
AcDbLine
 10
0.1459818701865888
 20
0.102980711876982
 30
0.0
 11
0.1599831128348388
 21
0.1169820128783313
 31
0.0
  0
LINE
  5
EB
330
90
100
AcDbEntity
  8
STANDARD
  6
AUSGEZOGEN
 62
     7
440
 33554687
370
    35
100
AcDbLine
 10
0.1572964501612481
 20
0.1029815711520975
 30
0.0
 11
0.1712968256548816
 21
0.1169820049952162
 31
0.0
  0
LINE
  5
EC
330
90
100
AcDbEntity
  8
STANDARD
  6
AUSGEZOGEN
 62
     7
440
 33554687
370
    35
100
AcDbLine
 10
0.1686109704617436
 20
0.1029824304226811
 30
0.0
 11
0.1826105371511645
 21
0.116981997112102
 31
0.0
  0
LINE
  5
ED
330
90
100
AcDbEntity
  8
STANDARD
  6
AUSGEZOGEN
 62
     7
440
 33554687
370
    35
100
AcDbLine
 10
0.1799255504399844
 20
0.1029832896977969
 30
0.0
 11
0.1861772148511115
 21
0.109234954108924
 31
0.0
  0
LINE
  5
EE
330
90
100
AcDbEntity
  8
STANDARD
  6
AUSGEZOGEN
 62
     7
440
 33554687
370
    35
100
AcDbLine
 10
0.0284374389648437
 20
0.1155439453125
 30
0.0
 11
0.0298755493164062
 21
0.1169820556640625
 31
0.0
  0
LINE
  5
EF
330
90
100
AcDbEntity
  8
STANDARD
  6
AUSGEZOGEN
 62
     7
440
 33554687
370
    35
100
AcDbLine
 10
0.0284374389648437
 20
0.104230278082975
 30
0.0
 11
0.0411892674827488
 21
0.1169820556640625
 31
0.0
  0
LINE
  5
F0
330
90
100
AcDbEntity
  8
STANDARD
  6
AUSGEZOGEN
 62
     7
440
 33554687
370
    35
100
AcDbLine
 10
0.0384937458008557
 20
0.1029728717774182
 30
0.0
 11
0.0525029296875
 21
0.1169820556640625
 31
0.0
  0
LINE
  5
F1
330
90
100
AcDbEntity
  8
STANDARD
  6
AUSGEZOGEN
 62
     7
440
 33554687
370
    35
100
AcDbLine
 10
0.049808121019216
 20
0.1029735262926535
 30
0.0
 11
0.063816650390625
 21
0.1169820556640625
 31
0.0
  0
LINE
  5
F2
330
90
100
AcDbEntity
  8
STANDARD
  6
AUSGEZOGEN
 62
     7
440
 33554687
370
    35
100
AcDbLine
 10
0.0611224962375763
 20
0.1029741808078888
 30
0.0
 11
0.07513037109375
 21
0.1169820556640625
 31
0.0
  0
LINE
  5
F3
330
90
100
AcDbEntity
  8
STANDARD
  6
AUSGEZOGEN
 62
     7
440
 33554687
370
    35
100
AcDbLine
 10
0.0724368129641025
 20
0.1029748353197405
 30
0.0
 11
0.0864440892600926
 21
0.1169820556640625
 31
0.0
  0
LINE
  5
F4
330
90
100
AcDbEntity
  8
STANDARD
  6
AUSGEZOGEN
 62
     7
440
 33554687
370
    35
100
AcDbLine
 10
0.0837513026140488
 20
0.1029754898415954
 30
0.0
 11
0.0885777587890625
 21
0.107801984575356
 31
0.0
  0
LINE
  5
F5
330
90
100
AcDbEntity
  8
STANDARD
  6
AUSGEZOGEN
 62
     7
440
 33554687
370
    35
100
AcDbLine
 10
0.0985777587890625
 20
0.1064882978311882
 30
0.0
 11
0.1090714673930239
 21
0.116982048352306
 31
0.0
  0
LINE
  5
F6
330
90
100
AcDbEntity
  8
STANDARD
  6
AUSGEZOGEN
 62
     7
440
 33554687
370
    35
100
AcDbLine
 10
0.1063809001026424
 20
0.1029777044186212
 30
0.0
 11
0.1203851802130653
 21
0.1169820404691909
 31
0.0
  0
LINE
  5
F7
330
90
100
AcDbEntity
  8
STANDARD
  6
AUSGEZOGEN
 62
     7
440
 33554687
370
    35
100
AcDbLine
 10
0.1176954800774505
 20
0.1029785636937367
 30
0.0
 11
0.1316988930331066
 21
0.1169820325860758
 31
0.0
  0
LINE
  5
F8
330
90
100
AcDbEntity
  8
STANDARD
  6
AUSGEZOGEN
 62
     7
440
 33554687
370
    35
100
AcDbLine
 10
0.1290100574870328
 20
0.1029794229686574
 30
0.0
 11
0.1430125473549386
 21
0.1169820247030014
 31
0.0
  0
LINE
  5
F9
330
90
100
AcDbEntity
  8
STANDARD
  6
AUSGEZOGEN
 62
     7
440
 33554687
370
    35
100
AcDbLine
 10
0.1403245789872751
 20
0.1029802822393322
 30
0.0
 11
0.1543262576380756
 21
0.116982016819888
 31
0.0
  0
LINE
  5
FA
330
90
100
AcDbEntity
  8
STANDARD
  6
AUSGEZOGEN
 62
     7
440
 33554687
370
    35
100
AcDbLine
 10
0.1516391589620832
 20
0.1029811415144477
 30
0.0
 11
0.165639970458117
 21
0.1169820089367729
 31
0.0
  0
LINE
  5
FB
330
90
100
AcDbEntity
  8
STANDARD
  6
AUSGEZOGEN
 62
     7
440
 33554687
370
    35
100
AcDbLine
 10
0.1629537389368914
 20
0.1029820007895633
 30
0.0
 11
0.1769536832781584
 21
0.1169820010536578
 31
0.0
  0
LINE
  5
FC
330
90
100
AcDbEntity
  8
STANDARD
  6
AUSGEZOGEN
 62
     7
440
 33554687
370
    35
100
AcDbLine
 10
0.1742683163327432
 20
0.1029828600644829
 30
0.0
 11
0.1861751437292221
 21
0.1148897825850706
 31
0.0
  0
LINE
  5
FD
330
90
100
AcDbEntity
  8
STANDARD
  6
AUSGEZOGEN
 62
     7
440
 33554687
370
    35
100
AcDbLine
 10
0.1855828378467159
 20
0.1029837193351587
 30
0.0
 11
0.1861792859568143
 21
0.1035801698277712
 31
0.0
  0
LINE
  5
FE
330
90
100
AcDbEntity
  8
STANDARD
  6
AUSGEZOGEN
 62
     7
440
 33554687
370
    35
100
AcDbLine
 10
0.0346027221679688
 20
0.1359014892578125
 30
0.0
 11
0.0346027221679688
 21
0.1359014892578125
 31
0.0
  0
LINE
  5
FF
330
90
100
AcDbEntity
  8
STANDARD
  6
AUSGEZOGEN
 62
     7
440
 33554687
370
    35
100
AcDbLine
 10
0.075377685546875
 20
0.1315765380859375
 30
0.0
 11
0.075377685546875
 21
0.1315765380859375
 31
0.0
  0
LINE
  5
100
330
90
100
AcDbEntity
  8
STANDARD
  6
AUSGEZOGEN
 62
     7
440
 33554687
370
    35
100
AcDbLine
 10
0.100377685546875
 20
0.1315765380859375
 30
0.0
 11
0.100377685546875
 21
0.1315765380859375
 31
0.0
  0
LINE
  5
101
330
90
100
AcDbEntity
  8
STANDARD
  6
AUSGEZOGEN
 62
     7
440
 33554687
370
    35
100
AcDbLine
 10
0.052502685546875
 20
0.1343765258789062
 30
0.0
 11
0.052502685546875
 21
0.1343765258789062
 31
0.0
  0
LINE
  5
102
330
90
100
AcDbEntity
  8
STANDARD
  6
AUSGEZOGEN
 62
     7
440
 33554687
370
    35
100
AcDbLine
 10
0.0517276611328125
 20
0.1324015502929687
 30
0.0
 11
0.0517276611328125
 21
0.1324015502929687
 31
0.0
  0
LINE
  5
103
330
90
100
AcDbEntity
  8
STANDARD
  6
AUSGEZOGEN
 62
     7
440
 33554687
370
    35
100
AcDbLine
 10
0.0767276611328125
 20
0.1324015502929687
 30
0.0
 11
0.0767276611328125
 21
0.1324015502929687
 31
0.0
  0
LINE
  5
104
330
90
100
AcDbEntity
  8
STANDARD
  6
AUSGEZOGEN
 62
     7
440
 33554687
370
    35
100
AcDbLine
 10
0.0302026977539063
 20
0.1314765014648437
 30
0.0
 11
0.0302026977539063
 21
0.1314765014648437
 31
0.0
  0
LINE
  5
105
330
90
100
AcDbEntity
  8
STANDARD
  6
AUSGEZOGEN
 62
     7
440
 33554687
370
    35
100
AcDbLine
 10
0.0552026977539063
 20
0.1314765014648437
 30
0.0
 11
0.0552026977539063
 21
0.1314765014648437
 31
0.0
  0
LINE
  5
106
330
90
100
AcDbEntity
  8
STANDARD
  6
AUSGEZOGEN
 62
     7
440
 33554687
370
    35
100
AcDbLine
 10
0.0316776733398438
 20
0.132051513671875
 30
0.0
 11
0.0316776733398438
 21
0.132051513671875
 31
0.0
  0
LINE
  5
107
330
90
100
AcDbEntity
  8
STANDARD
  6
AUSGEZOGEN
 62
     7
440
 33554687
370
    35
100
AcDbLine
 10
0.0566776733398437
 20
0.132051513671875
 30
0.0
 11
0.0566776733398437
 21
0.132051513671875
 31
0.0
  0
LINE
  5
108
330
90
100
AcDbEntity
  8
STANDARD
  6
AUSGEZOGEN
 62
     7
440
 33554687
370
    35
100
AcDbLine
 10
0.03170263671875
 20
0.1342764892578125
 30
0.0
 11
0.03170263671875
 21
0.1342764892578125
 31
0.0
  0
LINE
  5
109
330
90
100
AcDbEntity
  8
STANDARD
  6
AUSGEZOGEN
 62
     7
440
 33554687
370
    35
100
AcDbLine
 10
0.05670263671875
 20
0.1342764892578125
 30
0.0
 11
0.05670263671875
 21
0.1342764892578125
 31
0.0
  0
LINE
  5
10A
330
90
100
AcDbEntity
  8
STANDARD
  6
AUSGEZOGEN
 62
     7
440
 33554687
370
    35
100
AcDbLine
 10
0.0537777099609375
 20
0.1350015258789063
 30
0.0
 11
0.0537777099609375
 21
0.1350015258789063
 31
0.0
  0
LINE
  5
10B
330
90
100
AcDbEntity
  8
STANDARD
  6
AUSGEZOGEN
 62
     7
440
 33554687
370
    35
100
AcDbLine
 10
0.0294276733398438
 20
0.133801513671875
 30
0.0
 11
0.0294276733398438
 21
0.133801513671875
 31
0.0
  0
LINE
  5
10C
330
90
100
AcDbEntity
  8
STANDARD
  6
AUSGEZOGEN
 62
     7
440
 33554687
370
    35
100
AcDbLine
 10
0.0544276733398438
 20
0.133801513671875
 30
0.0
 11
0.0544276733398438
 21
0.133801513671875
 31
0.0
  0
LINE
  5
10D
330
90
100
AcDbEntity
  8
STANDARD
  6
AUSGEZOGEN
 62
     7
440
 33554687
370
    35
100
AcDbLine
 10
0.0324276733398437
 20
0.1371515502929687
 30
0.0
 11
0.0324276733398437
 21
0.1371515502929687
 31
0.0
  0
LINE
  5
10E
330
90
100
AcDbEntity
  8
STANDARD
  6
AUSGEZOGEN
 62
     7
440
 33554687
370
    35
100
AcDbLine
 10
0.0371277465820313
 20
0.1312515258789063
 30
0.0
 11
0.0371277465820313
 21
0.1312515258789063
 31
0.0
  0
LINE
  5
10F
330
90
100
AcDbEntity
  8
STANDARD
  6
AUSGEZOGEN
 62
     7
440
 33554687
370
    35
100
AcDbLine
 10
0.0422776489257813
 20
0.1304765014648437
 30
0.0
 11
0.0422776489257813
 21
0.1304765014648437
 31
0.0
  0
LINE
  5
110
330
90
100
AcDbEntity
  8
STANDARD
  6
AUSGEZOGEN
 62
     7
440
 33554687
370
    35
100
AcDbLine
 10
0.0444526977539062
 20
0.1297515258789063
 30
0.0
 11
0.0444526977539062
 21
0.1297515258789063
 31
0.0
  0
LINE
  5
111
330
90
100
AcDbEntity
  8
STANDARD
  6
AUSGEZOGEN
 62
     7
440
 33554687
370
    35
100
AcDbLine
 10
0.0427276611328125
 20
0.1281515502929688
 30
0.0
 11
0.0427276611328125
 21
0.1281515502929688
 31
0.0
  0
LINE
  5
112
330
90
100
AcDbEntity
  8
STANDARD
  6
AUSGEZOGEN
 62
     7
440
 33554687
370
    35
100
AcDbLine
 10
0.0677276611328125
 20
0.1281515502929688
 30
0.0
 11
0.0677276611328125
 21
0.1281515502929688
 31
0.0
  0
LINE
  5
113
330
90
100
AcDbEntity
  8
STANDARD
  6
AUSGEZOGEN
 62
     7
440
 33554687
370
    35
100
AcDbLine
 10
0.0400776977539063
 20
0.12912646484375
 30
0.0
 11
0.0400776977539063
 21
0.12912646484375
 31
0.0
  0
LINE
  5
114
330
90
100
AcDbEntity
  8
STANDARD
  6
AUSGEZOGEN
 62
     7
440
 33554687
370
    35
100
AcDbLine
 10
0.0375276489257813
 20
0.1294015502929688
 30
0.0
 11
0.0375276489257813
 21
0.1294015502929688
 31
0.0
  0
LINE
  5
115
330
90
100
AcDbEntity
  8
STANDARD
  6
AUSGEZOGEN
 62
     7
440
 33554687
370
    35
100
AcDbLine
 10
0.03432763671875
 20
0.1283515625
 30
0.0
 11
0.03432763671875
 21
0.1283515625
 31
0.0
  0
LINE
  5
116
330
90
100
AcDbEntity
  8
STANDARD
  6
AUSGEZOGEN
 62
     7
440
 33554687
370
    35
100
AcDbLine
 10
0.05932763671875
 20
0.1283515625
 30
0.0
 11
0.05932763671875
 21
0.1283515625
 31
0.0
  0
LINE
  5
117
330
90
100
AcDbEntity
  8
STANDARD
  6
AUSGEZOGEN
 62
     7
440
 33554687
370
    35
100
AcDbLine
 10
0.0361026611328125
 20
0.1265265502929687
 30
0.0
 11
0.0361026611328125
 21
0.1265265502929687
 31
0.0
  0
LINE
  5
118
330
90
100
AcDbEntity
  8
STANDARD
  6
AUSGEZOGEN
 62
     7
440
 33554687
370
    35
100
AcDbLine
 10
0.0611026611328125
 20
0.1265265502929687
 30
0.0
 11
0.0611026611328125
 21
0.1265265502929687
 31
0.0
  0
LINE
  5
119
330
90
100
AcDbEntity
  8
STANDARD
  6
AUSGEZOGEN
 62
     7
440
 33554687
370
    35
100
AcDbLine
 10
0.0861026611328125
 20
0.1265265502929687
 30
0.0
 11
0.0861026611328125
 21
0.1265265502929687
 31
0.0
  0
LINE
  5
11A
330
90
100
AcDbEntity
  8
STANDARD
  6
AUSGEZOGEN
 62
     7
440
 33554687
370
    35
100
AcDbLine
 10
0.037877685546875
 20
0.1255514526367187
 30
0.0
 11
0.037877685546875
 21
0.1255514526367187
 31
0.0
  0
LINE
  5
11B
330
90
100
AcDbEntity
  8
STANDARD
  6
AUSGEZOGEN
 62
     7
440
 33554687
370
    35
100
AcDbLine
 10
0.062877685546875
 20
0.1255514526367187
 30
0.0
 11
0.062877685546875
 21
0.1255514526367187
 31
0.0
  0
LINE
  5
11C
330
90
100
AcDbEntity
  8
STANDARD
  6
AUSGEZOGEN
 62
     7
440
 33554687
370
    35
100
AcDbLine
 10
0.087877685546875
 20
0.1255514526367187
 30
0.0
 11
0.087877685546875
 21
0.1255514526367187
 31
0.0
  0
LINE
  5
11D
330
90
100
AcDbEntity
  8
STANDARD
  6
AUSGEZOGEN
 62
     7
440
 33554687
370
    35
100
AcDbLine
 10
0.0352776489257813
 20
0.1245514526367188
 30
0.0
 11
0.0352776489257813
 21
0.1245514526367188
 31
0.0
  0
LINE
  5
11E
330
90
100
AcDbEntity
  8
STANDARD
  6
AUSGEZOGEN
 62
     7
440
 33554687
370
    35
100
AcDbLine
 10
0.0602776489257813
 20
0.1245514526367188
 30
0.0
 11
0.0602776489257813
 21
0.1245514526367188
 31
0.0
  0
LINE
  5
11F
330
90
100
AcDbEntity
  8
STANDARD
  6
AUSGEZOGEN
 62
     7
440
 33554687
370
    35
100
AcDbLine
 10
0.0852776489257813
 20
0.1245514526367188
 30
0.0
 11
0.0852776489257813
 21
0.1245514526367188
 31
0.0
  0
LINE
  5
120
330
90
100
AcDbEntity
  8
STANDARD
  6
AUSGEZOGEN
 62
     7
440
 33554687
370
    35
100
AcDbLine
 10
0.037377685546875
 20
0.1232015380859375
 30
0.0
 11
0.037377685546875
 21
0.1232015380859375
 31
0.0
  0
LINE
  5
121
330
90
100
AcDbEntity
  8
STANDARD
  6
AUSGEZOGEN
 62
     7
440
 33554687
370
    35
100
AcDbLine
 10
0.062377685546875
 20
0.1232015380859375
 30
0.0
 11
0.062377685546875
 21
0.1232015380859375
 31
0.0
  0
LINE
  5
122
330
90
100
AcDbEntity
  8
STANDARD
  6
AUSGEZOGEN
 62
     7
440
 33554687
370
    35
100
AcDbLine
 10
0.087377685546875
 20
0.1232015380859375
 30
0.0
 11
0.087377685546875
 21
0.1232015380859375
 31
0.0
  0
LINE
  5
123
330
90
100
AcDbEntity
  8
STANDARD
  6
AUSGEZOGEN
 62
     7
440
 33554687
370
    35
100
AcDbLine
 10
0.0299777221679688
 20
0.1232515258789063
 30
0.0
 11
0.0299777221679688
 21
0.1232515258789063
 31
0.0
  0
LINE
  5
124
330
90
100
AcDbEntity
  8
STANDARD
  6
AUSGEZOGEN
 62
     7
440
 33554687
370
    35
100
AcDbLine
 10
0.0549777221679687
 20
0.1232515258789063
 30
0.0
 11
0.0549777221679687
 21
0.1232515258789063
 31
0.0
  0
LINE
  5
125
330
90
100
AcDbEntity
  8
STANDARD
  6
AUSGEZOGEN
 62
     7
440
 33554687
370
    35
100
AcDbLine
 10
0.0799777221679688
 20
0.1232515258789063
 30
0.0
 11
0.0799777221679688
 21
0.1232515258789063
 31
0.0
  0
LINE
  5
126
330
90
100
AcDbEntity
  8
STANDARD
  6
AUSGEZOGEN
 62
     7
440
 33554687
370
    35
100
AcDbLine
 10
0.0323026733398437
 20
0.124426513671875
 30
0.0
 11
0.0323026733398437
 21
0.124426513671875
 31
0.0
  0
LINE
  5
127
330
90
100
AcDbEntity
  8
STANDARD
  6
AUSGEZOGEN
 62
     7
440
 33554687
370
    35
100
AcDbLine
 10
0.0573026733398437
 20
0.124426513671875
 30
0.0
 11
0.0573026733398437
 21
0.124426513671875
 31
0.0
  0
LINE
  5
128
330
90
100
AcDbEntity
  8
STANDARD
  6
AUSGEZOGEN
 62
     7
440
 33554687
370
    35
100
AcDbLine
 10
0.0823026733398438
 20
0.124426513671875
 30
0.0
 11
0.0823026733398438
 21
0.124426513671875
 31
0.0
  0
LINE
  5
129
330
90
100
AcDbEntity
  8
STANDARD
  6
AUSGEZOGEN
 62
     7
440
 33554687
370
    35
100
AcDbLine
 10
0.02995263671875
 20
0.12612646484375
 30
0.0
 11
0.02995263671875
 21
0.12612646484375
 31
0.0
  0
LINE
  5
12A
330
90
100
AcDbEntity
  8
STANDARD
  6
AUSGEZOGEN
 62
     7
440
 33554687
370
    35
100
AcDbLine
 10
0.05495263671875
 20
0.12612646484375
 30
0.0
 11
0.05495263671875
 21
0.12612646484375
 31
0.0
  0
LINE
  5
12B
330
90
100
AcDbEntity
  8
STANDARD
  6
AUSGEZOGEN
 62
     7
440
 33554687
370
    35
100
AcDbLine
 10
0.07995263671875
 20
0.12612646484375
 30
0.0
 11
0.07995263671875
 21
0.12612646484375
 31
0.0
  0
LINE
  5
12C
330
90
100
AcDbEntity
  8
STANDARD
  6
AUSGEZOGEN
 62
     7
440
 33554687
370
    35
100
AcDbLine
 10
0.0326027221679688
 20
0.1277265625
 30
0.0
 11
0.0326027221679688
 21
0.1277265625
 31
0.0
  0
LINE
  5
12D
330
90
100
AcDbEntity
  8
STANDARD
  6
AUSGEZOGEN
 62
     7
440
 33554687
370
    35
100
AcDbLine
 10
0.0576027221679688
 20
0.1277265625
 30
0.0
 11
0.0576027221679688
 21
0.1277265625
 31
0.0
  0
LINE
  5
12E
330
90
100
AcDbEntity
  8
STANDARD
  6
AUSGEZOGEN
 62
     7
440
 33554687
370
    35
100
AcDbLine
 10
0.0304776611328125
 20
0.1292015380859375
 30
0.0
 11
0.0304776611328125
 21
0.1292015380859375
 31
0.0
  0
LINE
  5
12F
330
90
100
AcDbEntity
  8
STANDARD
  6
AUSGEZOGEN
 62
     7
440
 33554687
370
    35
100
AcDbLine
 10
0.0554776611328125
 20
0.1292015380859375
 30
0.0
 11
0.0554776611328125
 21
0.1292015380859375
 31
0.0
  0
LINE
  5
130
330
90
100
AcDbEntity
  8
STANDARD
  6
AUSGEZOGEN
 62
     7
440
 33554687
370
    35
100
AcDbLine
 10
0.0332776489257813
 20
0.1297515258789063
 30
0.0
 11
0.0332776489257813
 21
0.1297515258789063
 31
0.0
  0
LINE
  5
131
330
90
100
AcDbEntity
  8
STANDARD
  6
AUSGEZOGEN
 62
     7
440
 33554687
370
    35
100
AcDbLine
 10
0.053252685546875
 20
0.1297765502929688
 30
0.0
 11
0.053252685546875
 21
0.1297765502929688
 31
0.0
  0
LINE
  5
132
330
90
100
AcDbEntity
  8
STANDARD
  6
AUSGEZOGEN
 62
     7
440
 33554687
370
    35
100
AcDbLine
 10
0.078252685546875
 20
0.1297765502929688
 30
0.0
 11
0.078252685546875
 21
0.1297765502929688
 31
0.0
  0
LINE
  5
133
330
90
100
AcDbEntity
  8
STANDARD
  6
AUSGEZOGEN
 62
     7
440
 33554687
370
    35
100
AcDbLine
 10
0.0525776977539062
 20
0.1276015014648438
 30
0.0
 11
0.0525776977539062
 21
0.1276015014648438
 31
0.0
  0
LINE
  5
134
330
90
100
AcDbEntity
  8
STANDARD
  6
AUSGEZOGEN
 62
     7
440
 33554687
370
    35
100
AcDbLine
 10
0.0775776977539063
 20
0.1276015014648438
 30
0.0
 11
0.0775776977539063
 21
0.1276015014648438
 31
0.0
  0
LINE
  5
135
330
90
100
AcDbEntity
  8
STANDARD
  6
AUSGEZOGEN
 62
     7
440
 33554687
370
    35
100
AcDbLine
 10
0.0501026611328125
 20
0.126676513671875
 30
0.0
 11
0.0501026611328125
 21
0.126676513671875
 31
0.0
  0
LINE
  5
136
330
90
100
AcDbEntity
  8
STANDARD
  6
AUSGEZOGEN
 62
     7
440
 33554687
370
    35
100
AcDbLine
 10
0.0751026611328125
 20
0.126676513671875
 30
0.0
 11
0.0751026611328125
 21
0.126676513671875
 31
0.0
  0
LINE
  5
137
330
90
100
AcDbEntity
  8
STANDARD
  6
AUSGEZOGEN
 62
     7
440
 33554687
370
    35
100
AcDbLine
 10
0.1001026611328125
 20
0.126676513671875
 30
0.0
 11
0.1001026611328125
 21
0.126676513671875
 31
0.0
  0
LINE
  5
138
330
90
100
AcDbEntity
  8
STANDARD
  6
AUSGEZOGEN
 62
     7
440
 33554687
370
    35
100
AcDbLine
 10
0.0501527099609375
 20
0.1295765380859375
 30
0.0
 11
0.0501527099609375
 21
0.1295765380859375
 31
0.0
  0
LINE
  5
139
330
90
100
AcDbEntity
  8
STANDARD
  6
AUSGEZOGEN
 62
     7
440
 33554687
370
    35
100
AcDbLine
 10
0.0751527099609375
 20
0.1295765380859375
 30
0.0
 11
0.0751527099609375
 21
0.1295765380859375
 31
0.0
  0
LINE
  5
13A
330
90
100
AcDbEntity
  8
STANDARD
  6
AUSGEZOGEN
 62
     7
440
 33554687
370
    35
100
AcDbLine
 10
0.1001527099609375
 20
0.1295765380859375
 30
0.0
 11
0.1001527099609375
 21
0.1295765380859375
 31
0.0
  0
LINE
  5
13B
330
90
100
AcDbEntity
  8
STANDARD
  6
AUSGEZOGEN
 62
     7
440
 33554687
370
    35
100
AcDbLine
 10
0.0474526977539063
 20
0.12950146484375
 30
0.0
 11
0.0474526977539063
 21
0.12950146484375
 31
0.0
  0
LINE
  5
13C
330
90
100
AcDbEntity
  8
STANDARD
  6
AUSGEZOGEN
 62
     7
440
 33554687
370
    35
100
AcDbLine
 10
0.0974526977539062
 20
0.12950146484375
 30
0.0
 11
0.0974526977539062
 21
0.12950146484375
 31
0.0
  0
LINE
  5
13D
330
90
100
AcDbEntity
  8
STANDARD
  6
AUSGEZOGEN
 62
     7
440
 33554687
370
    35
100
AcDbLine
 10
0.0481527099609375
 20
0.1268265380859375
 30
0.0
 11
0.0481527099609375
 21
0.1268265380859375
 31
0.0
  0
LINE
  5
13E
330
90
100
AcDbEntity
  8
STANDARD
  6
AUSGEZOGEN
 62
     7
440
 33554687
370
    35
100
AcDbLine
 10
0.0731527099609375
 20
0.1268265380859375
 30
0.0
 11
0.0731527099609375
 21
0.1268265380859375
 31
0.0
  0
LINE
  5
13F
330
90
100
AcDbEntity
  8
STANDARD
  6
AUSGEZOGEN
 62
     7
440
 33554687
370
    35
100
AcDbLine
 10
0.0981527099609375
 20
0.1268265380859375
 30
0.0
 11
0.0981527099609375
 21
0.1268265380859375
 31
0.0
  0
LINE
  5
140
330
90
100
AcDbEntity
  8
STANDARD
  6
AUSGEZOGEN
 62
     7
440
 33554687
370
    35
100
AcDbLine
 10
0.0452776489257813
 20
0.1266514892578125
 30
0.0
 11
0.0452776489257813
 21
0.1266514892578125
 31
0.0
  0
LINE
  5
141
330
90
100
AcDbEntity
  8
STANDARD
  6
AUSGEZOGEN
 62
     7
440
 33554687
370
    35
100
AcDbLine
 10
0.0702776489257813
 20
0.1266514892578125
 30
0.0
 11
0.0702776489257813
 21
0.1266514892578125
 31
0.0
  0
LINE
  5
142
330
90
100
AcDbEntity
  8
STANDARD
  6
AUSGEZOGEN
 62
     7
440
 33554687
370
    35
100
AcDbLine
 10
0.0429777221679688
 20
0.1267265625
 30
0.0
 11
0.0429777221679688
 21
0.1267265625
 31
0.0
  0
LINE
  5
143
330
90
100
AcDbEntity
  8
STANDARD
  6
AUSGEZOGEN
 62
     7
440
 33554687
370
    35
100
AcDbLine
 10
0.0679777221679688
 20
0.1267265625
 30
0.0
 11
0.0679777221679688
 21
0.1267265625
 31
0.0
  0
LINE
  5
144
330
90
100
AcDbEntity
  8
STANDARD
  6
AUSGEZOGEN
 62
     7
440
 33554687
370
    35
100
AcDbLine
 10
0.0398276977539063
 20
0.1265765380859375
 30
0.0
 11
0.0398276977539063
 21
0.1265765380859375
 31
0.0
  0
LINE
  5
145
330
90
100
AcDbEntity
  8
STANDARD
  6
AUSGEZOGEN
 62
     7
440
 33554687
370
    35
100
AcDbLine
 10
0.0648276977539062
 20
0.1265765380859375
 30
0.0
 11
0.0648276977539062
 21
0.1265765380859375
 31
0.0
  0
LINE
  5
146
330
90
100
AcDbEntity
  8
STANDARD
  6
AUSGEZOGEN
 62
     7
440
 33554687
370
    35
100
AcDbLine
 10
0.0898276977539063
 20
0.1265765380859375
 30
0.0
 11
0.0898276977539063
 21
0.1265765380859375
 31
0.0
  0
LINE
  5
147
330
90
100
AcDbEntity
  8
STANDARD
  6
AUSGEZOGEN
 62
     7
440
 33554687
370
    35
100
AcDbLine
 10
0.0411277465820312
 20
0.1244015502929687
 30
0.0
 11
0.0411277465820312
 21
0.1244015502929687
 31
0.0
  0
LINE
  5
148
330
90
100
AcDbEntity
  8
STANDARD
  6
AUSGEZOGEN
 62
     7
440
 33554687
370
    35
100
AcDbLine
 10
0.0661276245117187
 20
0.1244015502929687
 30
0.0
 11
0.0661276245117187
 21
0.1244015502929687
 31
0.0
  0
LINE
  5
149
330
90
100
AcDbEntity
  8
STANDARD
  6
AUSGEZOGEN
 62
     7
440
 33554687
370
    35
100
AcDbLine
 10
0.0911276245117188
 20
0.1244015502929687
 30
0.0
 11
0.0911276245117188
 21
0.1244015502929687
 31
0.0
  0
LINE
  5
14A
330
90
100
AcDbEntity
  8
STANDARD
  6
AUSGEZOGEN
 62
     7
440
 33554687
370
    35
100
AcDbLine
 10
0.044377685546875
 20
0.1244015502929687
 30
0.0
 11
0.044377685546875
 21
0.1244015502929687
 31
0.0
  0
LINE
  5
14B
330
90
100
AcDbEntity
  8
STANDARD
  6
AUSGEZOGEN
 62
     7
440
 33554687
370
    35
100
AcDbLine
 10
0.069377685546875
 20
0.1244015502929687
 30
0.0
 11
0.069377685546875
 21
0.1244015502929687
 31
0.0
  0
LINE
  5
14C
330
90
100
AcDbEntity
  8
STANDARD
  6
AUSGEZOGEN
 62
     7
440
 33554687
370
    35
100
AcDbLine
 10
0.094377685546875
 20
0.1244015502929687
 30
0.0
 11
0.094377685546875
 21
0.1244015502929687
 31
0.0
  0
LINE
  5
14D
330
90
100
AcDbEntity
  8
STANDARD
  6
AUSGEZOGEN
 62
     7
440
 33554687
370
    35
100
AcDbLine
 10
0.046552734375
 20
0.1244015502929687
 30
0.0
 11
0.046552734375
 21
0.1244015502929687
 31
0.0
  0
LINE
  5
14E
330
90
100
AcDbEntity
  8
STANDARD
  6
AUSGEZOGEN
 62
     7
440
 33554687
370
    35
100
AcDbLine
 10
0.071552734375
 20
0.1244015502929687
 30
0.0
 11
0.071552734375
 21
0.1244015502929687
 31
0.0
  0
LINE
  5
14F
330
90
100
AcDbEntity
  8
STANDARD
  6
AUSGEZOGEN
 62
     7
440
 33554687
370
    35
100
AcDbLine
 10
0.096552734375
 20
0.1244015502929687
 30
0.0
 11
0.096552734375
 21
0.1244015502929687
 31
0.0
  0
LINE
  5
150
330
90
100
AcDbEntity
  8
STANDARD
  6
AUSGEZOGEN
 62
     7
440
 33554687
370
    35
100
AcDbLine
 10
0.048502685546875
 20
0.1243765258789063
 30
0.0
 11
0.048502685546875
 21
0.1243765258789063
 31
0.0
  0
LINE
  5
151
330
90
100
AcDbEntity
  8
STANDARD
  6
AUSGEZOGEN
 62
     7
440
 33554687
370
    35
100
AcDbLine
 10
0.073502685546875
 20
0.1243765258789063
 30
0.0
 11
0.073502685546875
 21
0.1243765258789063
 31
0.0
  0
LINE
  5
152
330
90
100
AcDbEntity
  8
STANDARD
  6
AUSGEZOGEN
 62
     7
440
 33554687
370
    35
100
AcDbLine
 10
0.0985027465820313
 20
0.1243765258789063
 30
0.0
 11
0.0985027465820313
 21
0.1243765258789063
 31
0.0
  0
LINE
  5
153
330
90
100
AcDbEntity
  8
STANDARD
  6
AUSGEZOGEN
 62
     7
440
 33554687
370
    35
100
AcDbLine
 10
0.0509777221679688
 20
0.1243765258789063
 30
0.0
 11
0.0509777221679688
 21
0.1243765258789063
 31
0.0
  0
LINE
  5
154
330
90
100
AcDbEntity
  8
STANDARD
  6
AUSGEZOGEN
 62
     7
440
 33554687
370
    35
100
AcDbLine
 10
0.0759777221679687
 20
0.1243765258789063
 30
0.0
 11
0.0759777221679687
 21
0.1243765258789063
 31
0.0
  0
LINE
  5
155
330
90
100
AcDbEntity
  8
STANDARD
  6
AUSGEZOGEN
 62
     7
440
 33554687
370
    35
100
AcDbLine
 10
0.1009777221679688
 20
0.1243765258789063
 30
0.0
 11
0.1009777221679688
 21
0.1243765258789063
 31
0.0
  0
LINE
  5
156
330
90
100
AcDbEntity
  8
STANDARD
  6
AUSGEZOGEN
 62
     7
440
 33554687
370
    35
100
AcDbLine
 10
0.0527276611328125
 20
0.1234765014648437
 30
0.0
 11
0.0527276611328125
 21
0.1234765014648437
 31
0.0
  0
LINE
  5
157
330
90
100
AcDbEntity
  8
STANDARD
  6
AUSGEZOGEN
 62
     7
440
 33554687
370
    35
100
AcDbLine
 10
0.0777276611328125
 20
0.1234765014648437
 30
0.0
 11
0.0777276611328125
 21
0.1234765014648437
 31
0.0
  0
LINE
  5
158
330
90
100
AcDbEntity
  8
STANDARD
  6
AUSGEZOGEN
 62
     7
440
 33554687
370
    35
100
AcDbLine
 10
0.0293026733398438
 20
0.1247014770507813
 30
0.0
 11
0.0293026733398438
 21
0.1247014770507813
 31
0.0
  0
LINE
  5
159
330
90
100
AcDbEntity
  8
STANDARD
  6
AUSGEZOGEN
 62
     7
440
 33554687
370
    35
100
AcDbLine
 10
0.0543026733398438
 20
0.1247014770507813
 30
0.0
 11
0.0543026733398438
 21
0.1247014770507813
 31
0.0
  0
LINE
  5
15A
330
90
100
AcDbEntity
  8
STANDARD
  6
AUSGEZOGEN
 62
     7
440
 33554687
370
    35
100
AcDbLine
 10
0.0793026733398438
 20
0.1247014770507813
 30
0.0
 11
0.0793026733398438
 21
0.1247014770507813
 31
0.0
  0
LINE
  5
15B
330
90
100
AcDbEntity
  8
STANDARD
  6
AUSGEZOGEN
 62
     7
440
 33554687
370
    35
100
AcDbLine
 10
0.039502685546875
 20
0.1243015747070313
 30
0.0
 11
0.039502685546875
 21
0.1243015747070313
 31
0.0
  0
LINE
  5
15C
330
90
100
AcDbEntity
  8
STANDARD
  6
AUSGEZOGEN
 62
     7
440
 33554687
370
    35
100
AcDbLine
 10
0.064502685546875
 20
0.1243015747070313
 30
0.0
 11
0.064502685546875
 21
0.1243015747070313
 31
0.0
  0
LINE
  5
15D
330
90
100
AcDbEntity
  8
STANDARD
  6
AUSGEZOGEN
 62
     7
440
 33554687
370
    35
100
AcDbLine
 10
0.0895027465820313
 20
0.1243015747070313
 30
0.0
 11
0.0895027465820313
 21
0.1243015747070313
 31
0.0
  0
LINE
  5
15E
330
90
100
AcDbEntity
  8
STANDARD
  6
AUSGEZOGEN
 62
     7
440
 33554687
370
    25
100
AcDbLine
 10
0.140475830078125
 20
0.1868067626953125
 30
0.0
 11
0.140475830078125
 21
0.2068067626953125
 31
0.0
  0
LINE
  5
15F
330
90
100
AcDbEntity
  8
STANDARD
  6
AUSGEZOGEN
 62
     7
440
 33554687
370
    25
100
AcDbLine
 10
0.140475830078125
 20
0.2020907592773438
 30
0.0
 11
0.116475830078125
 21
0.2020907592773438
 31
0.0
  0
LINE
  5
160
330
90
100
AcDbEntity
  8
STANDARD
  6
AUSGEZOGEN
 62
     7
440
 33554687
370
    25
100
AcDbLine
 10
0.1376758422851563
 20
0.2020907592773438
 30
0.0
 11
0.137475830078125
 21
0.2020907592773438
 31
0.0
  0
LINE
  5
161
330
90
100
AcDbEntity
  8
STANDARD
  6
AUSGEZOGEN
 62
     7
440
 33554687
370
    25
100
AcDbLine
 10
0.140475830078125
 20
0.2020907592773438
 30
0.0
 11
0.140475830078125
 21
0.2020907592773438
 31
0.0
  0
LINE
  5
162
330
90
100
AcDbEntity
  8
STANDARD
  6
AUSGEZOGEN
 62
     7
440
 33554687
370
    25
100
AcDbLine
 10
0.140475830078125
 20
0.2020907592773438
 30
0.0
 11
0.140475830078125
 21
0.2020907592773438
 31
0.0
  0
LINE
  5
163
330
90
100
AcDbEntity
  8
STANDARD
  6
AUSGEZOGEN
 62
     7
440
 33554687
370
    25
100
AcDbLine
 10
0.140475830078125
 20
0.2020907592773438
 30
0.0
 11
0.140475830078125
 21
0.2020907592773438
 31
0.0
  0
LINE
  5
164
330
90
100
AcDbEntity
  8
STANDARD
  6
AUSGEZOGEN
 62
     7
440
 33554687
370
    25
100
AcDbLine
 10
0.140475830078125
 20
0.2020907592773438
 30
0.0
 11
0.1376758422851563
 21
0.2016908569335938
 31
0.0
  0
LINE
  5
165
330
90
100
AcDbEntity
  8
STANDARD
  6
AUSGEZOGEN
 62
     7
440
 33554687
370
    25
100
AcDbLine
 10
0.1376758422851563
 20
0.2016908569335938
 30
0.0
 11
0.1376758422851563
 21
0.2024908447265625
 31
0.0
  0
LINE
  5
166
330
90
100
AcDbEntity
  8
STANDARD
  6
AUSGEZOGEN
 62
     7
440
 33554687
370
    25
100
AcDbLine
 10
0.1376758422851563
 20
0.2024908447265625
 30
0.0
 11
0.140475830078125
 21
0.2020907592773438
 31
0.0
  0
HATCH
  5
167
330
90
100
AcDbEntity
  8
STANDARD
  6
AUSGEZOGEN
 62
     7
440
 33554687
370
    25
100
AcDbHatch
 10
0.0
 20
0.0
 30
0.0
210
0.0
220
0.0
230
1.0
  2
SOLID
 70
     1
 71
     0
 91
        1
 92
        3
 72
     0
 73
     1
 93
        3
 10
0.1376758422851563
 20
0.2024908447265625
 10
0.1376758422851563
 20
0.2016908569335938
 10
0.140475830078125
 20
0.2020907592773438
 97
        0
 75
     0
 76
     1
 98
        0
  0
LINE
  5
168
330
90
100
AcDbEntity
  8
STANDARD
  6
AUSGEZOGEN
 62
     7
440
 33554687
370
    25
100
AcDbLine
 10
0.0778534545898437
 20
0.161133056640625
 30
0.0
 11
0.0807464599609375
 21
0.161133056640625
 31
0.0
  0
LINE
  5
169
330
90
100
AcDbEntity
  8
STANDARD
  6
AUSGEZOGEN
 62
     7
440
 33554687
370
    25
100
AcDbLine
 10
0.1108382568359375
 20
0.0780133056640625
 30
0.0
 11
0.1085266723632813
 21
0.0780133056640625
 31
0.0
  0
LINE
  5
16A
330
90
100
AcDbEntity
  8
STANDARD
  6
AUSGEZOGEN
 62
     7
440
 33554687
370
    25
100
AcDbLine
 10
0.0985777587890625
 20
0.122978271484375
 30
0.0
 11
0.0985777587890625
 21
0.0799820556640625
 31
0.0
  0
LINE
  5
16B
330
90
100
AcDbEntity
  8
STANDARD
  6
AUSGEZOGEN
 62
     7
440
 33554687
370
    25
100
AcDbLine
 10
0.1289379272460938
 20
0.1093255004882813
 30
0.0
 11
0.1289379272460938
 21
0.123559326171875
 31
0.0
  0
LINE
  5
16C
330
90
100
AcDbEntity
  8
STANDARD
  6
AUSGEZOGEN
 62
     7
440
 33554687
370
    25
100
AcDbLine
 10
0.1289379272460938
 20
0.12400927734375
 30
0.0
 11
0.1289379272460938
 21
0.12400927734375
 31
0.0
  0
LINE
  5
16D
330
90
100
AcDbEntity
  8
STANDARD
  6
AUSGEZOGEN
 62
     7
440
 33554687
370
    25
100
AcDbLine
 10
0.1289379272460938
 20
0.1231092529296875
 30
0.0
 11
0.1289379272460938
 21
0.1231092529296875
 31
0.0
  0
LINE
  5
16E
330
90
100
AcDbEntity
  8
STANDARD
  6
AUSGEZOGEN
 62
     7
440
 33554687
370
    25
100
AcDbLine
 10
0.1284879150390625
 20
0.123559326171875
 30
0.0
 11
0.1284879150390625
 21
0.123559326171875
 31
0.0
  0
LINE
  5
16F
330
90
100
AcDbEntity
  8
STANDARD
  6
AUSGEZOGEN
 62
     7
440
 33554687
370
    25
100
AcDbLine
 10
0.1293878784179688
 20
0.123559326171875
 30
0.0
 11
0.1293878784179688
 21
0.123559326171875
 31
0.0
  0
CIRCLE
  5
170
330
90
100
AcDbEntity
  8
STANDARD
  6
AUSGEZOGEN
 62
     7
440
 33554687
370
    25
100
AcDbCircle
 10
0.1289379272460938
 20
0.123559326171875
 30
0.0
 40
0.0004500000039116
  0
HATCH
  5
171
330
90
100
AcDbEntity
  8
STANDARD
  6
AUSGEZOGEN
 62
     7
440
 33554687
370
    25
100
AcDbHatch
 10
0.0
 20
0.0
 30
0.0
210
0.0
220
0.0
230
1.0
  2
SOLID
 70
     1
 71
     0
 91
        1
 92
        3
 72
     0
 73
     1
 93
        3
 10
0.1291629028320312
 20
0.1231723022460938
 10
0.128712890625
 20
0.1231723022460938
 10
0.1289379272460938
 20
0.1231092529296875
 97
        0
 75
     0
 76
     1
 98
        0
  0
HATCH
  5
172
330
90
100
AcDbEntity
  8
STANDARD
  6
AUSGEZOGEN
 62
     7
440
 33554687
370
    25
100
AcDbHatch
 10
0.0
 20
0.0
 30
0.0
210
0.0
220
0.0
230
1.0
  2
SOLID
 70
     1
 71
     0
 91
        1
 92
        3
 72
     0
 73
     1
 93
        3
 10
0.128712890625
 20
0.1231723022460938
 10
0.1291629028320312
 20
0.1231723022460938
 10
0.1293248901367187
 20
0.1233343505859375
 97
        0
 75
     0
 76
     1
 98
        0
  0
HATCH
  5
173
330
90
100
AcDbEntity
  8
STANDARD
  6
AUSGEZOGEN
 62
     7
440
 33554687
370
    25
100
AcDbHatch
 10
0.0
 20
0.0
 30
0.0
210
0.0
220
0.0
230
1.0
  2
SOLID
 70
     1
 71
     0
 91
        1
 92
        3
 72
     0
 73
     1
 93
        3
 10
0.128712890625
 20
0.1231723022460938
 10
0.1293248901367187
 20
0.1233343505859375
 10
0.1285508422851563
 20
0.1233343505859375
 97
        0
 75
     0
 76
     1
 98
        0
  0
HATCH
  5
174
330
90
100
AcDbEntity
  8
STANDARD
  6
AUSGEZOGEN
 62
     7
440
 33554687
370
    25
100
AcDbHatch
 10
0.0
 20
0.0
 30
0.0
210
0.0
220
0.0
230
1.0
  2
SOLID
 70
     1
 71
     0
 91
        1
 92
        3
 72
     0
 73
     1
 93
        3
 10
0.1285508422851563
 20
0.1233343505859375
 10
0.1293248901367187
 20
0.1233343505859375
 10
0.1293878784179688
 20
0.123559326171875
 97
        0
 75
     0
 76
     1
 98
        0
  0
HATCH
  5
175
330
90
100
AcDbEntity
  8
STANDARD
  6
AUSGEZOGEN
 62
     7
440
 33554687
370
    25
100
AcDbHatch
 10
0.0
 20
0.0
 30
0.0
210
0.0
220
0.0
230
1.0
  2
SOLID
 70
     1
 71
     0
 91
        1
 92
        3
 72
     0
 73
     1
 93
        3
 10
0.1285508422851563
 20
0.1233343505859375
 10
0.1293878784179688
 20
0.123559326171875
 10
0.1284879150390625
 20
0.123559326171875
 97
        0
 75
     0
 76
     1
 98
        0
  0
HATCH
  5
176
330
90
100
AcDbEntity
  8
STANDARD
  6
AUSGEZOGEN
 62
     7
440
 33554687
370
    25
100
AcDbHatch
 10
0.0
 20
0.0
 30
0.0
210
0.0
220
0.0
230
1.0
  2
SOLID
 70
     1
 71
     0
 91
        1
 92
        3
 72
     0
 73
     1
 93
        3
 10
0.1284879150390625
 20
0.123559326171875
 10
0.1293878784179688
 20
0.123559326171875
 10
0.1293248901367187
 20
0.1237843017578125
 97
        0
 75
     0
 76
     1
 98
        0
  0
HATCH
  5
177
330
90
100
AcDbEntity
  8
STANDARD
  6
AUSGEZOGEN
 62
     7
440
 33554687
370
    25
100
AcDbHatch
 10
0.0
 20
0.0
 30
0.0
210
0.0
220
0.0
230
1.0
  2
SOLID
 70
     1
 71
     0
 91
        1
 92
        3
 72
     0
 73
     1
 93
        3
 10
0.1284879150390625
 20
0.123559326171875
 10
0.1293248901367187
 20
0.1237843017578125
 10
0.1285508422851563
 20
0.1237843017578125
 97
        0
 75
     0
 76
     1
 98
        0
  0
HATCH
  5
178
330
90
100
AcDbEntity
  8
STANDARD
  6
AUSGEZOGEN
 62
     7
440
 33554687
370
    25
100
AcDbHatch
 10
0.0
 20
0.0
 30
0.0
210
0.0
220
0.0
230
1.0
  2
SOLID
 70
     1
 71
     0
 91
        1
 92
        3
 72
     0
 73
     1
 93
        3
 10
0.1285508422851563
 20
0.1237843017578125
 10
0.1293248901367187
 20
0.1237843017578125
 10
0.1291629028320312
 20
0.1239462890625
 97
        0
 75
     0
 76
     1
 98
        0
  0
HATCH
  5
179
330
90
100
AcDbEntity
  8
STANDARD
  6
AUSGEZOGEN
 62
     7
440
 33554687
370
    25
100
AcDbHatch
 10
0.0
 20
0.0
 30
0.0
210
0.0
220
0.0
230
1.0
  2
SOLID
 70
     1
 71
     0
 91
        1
 92
        3
 72
     0
 73
     1
 93
        3
 10
0.1285508422851563
 20
0.1237843017578125
 10
0.1291629028320312
 20
0.1239462890625
 10
0.128712890625
 20
0.1239462890625
 97
        0
 75
     0
 76
     1
 98
        0
  0
HATCH
  5
17A
330
90
100
AcDbEntity
  8
STANDARD
  6
AUSGEZOGEN
 62
     7
440
 33554687
370
    25
100
AcDbHatch
 10
0.0
 20
0.0
 30
0.0
210
0.0
220
0.0
230
1.0
  2
SOLID
 70
     1
 71
     0
 91
        1
 92
        3
 72
     0
 73
     1
 93
        3
 10
0.128712890625
 20
0.1239462890625
 10
0.1291629028320312
 20
0.1239462890625
 10
0.1289379272460938
 20
0.12400927734375
 97
        0
 75
     0
 76
     1
 98
        0
  0
LINE
  5
17B
330
90
100
AcDbEntity
  8
STANDARD
  6
AUSGEZOGEN
 62
     7
440
 33554687
370
    25
100
AcDbLine
 10
0.1349379272460937
 20
0.1093255004882813
 30
0.0
 11
0.1289379272460938
 21
0.1093255004882813
 31
0.0
  0
LINE
  5
17C
330
90
100
AcDbEntity
  8
STANDARD
  6
AUSGEZOGEN
 62
     7
440
 33554687
370
    25
100
AcDbLine
 10
0.0985777587890625
 20
0.0849730224609375
 30
0.0
 11
0.1861856689453125
 21
0.0849861450195313
 31
0.0
  0
LINE
  5
17D
330
90
100
AcDbEntity
  8
STANDARD
  6
AUSGEZOGEN
 62
     7
440
 33554687
370
    25
100
AcDbLine
 10
0.0985777587890625
 20
0.1029771118164063
 30
0.0
 11
0.1861795043945313
 21
0.1029837646484375
 31
0.0
  0
LINE
  5
17E
330
90
100
AcDbEntity
  8
STANDARD
  6
AUSGEZOGEN
 62
     7
440
 33554687
370
    25
100
AcDbLine
 10
0.0985777587890625
 20
0.1169820556640625
 30
0.0
 11
0.1861743774414062
 21
0.1169819946289063
 31
0.0
  0
LINE
  5
17F
330
90
100
AcDbEntity
  8
STANDARD
  6
AUSGEZOGEN
 62
     7
440
 33554687
370
    25
100
AcDbLine
 10
0.0985777587890625
 20
0.122978271484375
 30
0.0
 11
0.186182373046875
 21
0.122978271484375
 31
0.0
  0
LINE
  5
180
330
90
100
AcDbEntity
  8
STANDARD
  6
AUSGEZOGEN
 62
     7
440
 33554687
370
    70
100
AcDbLine
 10
0.1405777587890625
 20
0.1369820556640625
 30
0.0
 11
0.1085777587890625
 21
0.1449820556640625
 31
0.0
  0
LINE
  5
181
330
90
100
AcDbEntity
  8
STANDARD
  6
AUSGEZOGEN
 62
     7
440
 33554687
370
    70
100
AcDbLine
 10
0.1025777587890625
 20
0.1449820556640625
 30
0.0
 11
0.1085777587890625
 21
0.1449820556640625
 31
0.0
  0
LINE
  5
182
330
90
100
AcDbEntity
  8
STANDARD
  6
AUSGEZOGEN
 62
     7
440
 33554687
370
    70
100
AcDbLine
 10
0.1405777587890625
 20
0.123978271484375
 30
0.0
 11
0.1405777587890625
 21
0.1369820556640625
 31
0.0
  0
LINE
  5
183
330
90
100
AcDbEntity
  8
PROJEKT
  6
AUSGEZOGEN
 62
     7
440
 33554687
370
    35
100
AcDbLine
 10
0.1025777587890625
 20
0.1409820556640625
 30
0.0
 11
0.1030396118164063
 21
0.1346265258789063
 31
0.0
  0
LINE
  5
184
330
90
100
AcDbEntity
  8
PROJEKT
  6
AUSGEZOGEN
 62
     7
440
 33554687
370
    35
100
AcDbLine
 10
0.1024281005859375
 20
0.129326416015625
 30
0.0
 11
0.1025777587890625
 21
0.1242321166992188
 31
0.0
  0
LINE
  5
185
330
90
100
AcDbEntity
  8
PROJEKT
  6
AUSGEZOGEN
 62
     7
440
 33554687
370
    35
100
AcDbLine
 10
0.1025777587890625
 20
0.123978271484375
 30
0.0
 11
0.1083397216796875
 21
0.1242675170898438
 31
0.0
  0
LINE
  5
186
330
90
100
AcDbEntity
  8
PROJEKT
  6
AUSGEZOGEN
 62
     7
440
 33554687
370
    35
100
AcDbLine
 10
0.1083397216796875
 20
0.1242675170898438
 30
0.0
 11
0.1170034790039063
 21
0.1235540771484375
 31
0.0
  0
LINE
  5
187
330
90
100
AcDbEntity
  8
PROJEKT
  6
AUSGEZOGEN
 62
     7
440
 33554687
370
    35
100
AcDbLine
 10
0.1170034790039063
 20
0.1235540771484375
 30
0.0
 11
0.1224591064453125
 21
0.123978271484375
 31
0.0
  0
LINE
  5
188
330
90
100
AcDbEntity
  8
PROJEKT
  6
AUSGEZOGEN
 62
     7
440
 33554687
370
    35
100
AcDbLine
 10
0.1224591064453125
 20
0.123978271484375
 30
0.0
 11
0.1282210693359375
 21
0.1242675170898438
 31
0.0
  0
LINE
  5
189
330
90
100
AcDbEntity
  8
PROJEKT
  6
AUSGEZOGEN
 62
     7
440
 33554687
370
    35
100
AcDbLine
 10
0.1282210693359375
 20
0.1242675170898438
 30
0.0
 11
0.1368847045898438
 21
0.1235540771484375
 31
0.0
  0
LINE
  5
18A
330
90
100
AcDbEntity
  8
PROJEKT
  6
AUSGEZOGEN
 62
     7
440
 33554687
370
    35
100
AcDbLine
 10
0.1368847045898438
 20
0.1235540771484375
 30
0.0
 11
0.1405777587890625
 21
0.123978271484375
 31
0.0
  0
LINE
  5
18B
330
90
100
AcDbEntity
  8
PROJEKT
  6
AUSGEZOGEN
 62
     7
440
 33554687
370
    35
100
AcDbLine
 10
0.1026400146484375
 20
0.1254314575195312
 30
0.0
 11
0.1025777587890625
 21
0.123978271484375
 31
0.0
  0
LINE
  5
18C
330
90
100
AcDbEntity
  8
PROJEKT
  6
AUSGEZOGEN
 62
     7
440
 33554687
370
    35
100
AcDbLine
 10
0.1026400146484375
 20
0.1254314575195312
 30
0.0
 11
0.1025777587890625
 21
0.1242321166992188
 31
0.0
  0
LINE
  5
18D
330
90
100
AcDbEntity
  8
STANDARD
  6
AUSGEZOGEN
 62
     7
440
 33554687
370
    35
100
AcDbLine
 10
0.1025777587890625
 20
0.123978271484375
 30
0.0
 11
0.1025777587890625
 21
0.123978271484375
 31
0.0
  0
LINE
  5
18E
330
90
100
AcDbEntity
  8
STANDARD
  6
AUSGEZOGEN
 62
     7
440
 33554687
370
    25
100
AcDbLine
 10
0.140475830078125
 20
0.2020907592773438
 30
0.0
 11
0.176475830078125
 21
0.2020907592773438
 31
0.0
  0
LINE
  5
18F
330
90
100
AcDbEntity
  8
STANDARD
  6
AUSGEZOGEN
 62
     7
440
 33554687
370
    25
100
AcDbLine
 10
0.14327587890625
 20
0.2020907592773438
 30
0.0
 11
0.143475830078125
 21
0.2020907592773438
 31
0.0
  0
LINE
  5
190
330
90
100
AcDbEntity
  8
STANDARD
  6
AUSGEZOGEN
 62
     7
440
 33554687
370
    25
100
AcDbLine
 10
0.140475830078125
 20
0.2020907592773438
 30
0.0
 11
0.140475830078125
 21
0.2020907592773438
 31
0.0
  0
LINE
  5
191
330
90
100
AcDbEntity
  8
STANDARD
  6
AUSGEZOGEN
 62
     7
440
 33554687
370
    25
100
AcDbLine
 10
0.140475830078125
 20
0.2020907592773438
 30
0.0
 11
0.140475830078125
 21
0.2020907592773438
 31
0.0
  0
LINE
  5
192
330
90
100
AcDbEntity
  8
STANDARD
  6
AUSGEZOGEN
 62
     7
440
 33554687
370
    25
100
AcDbLine
 10
0.140475830078125
 20
0.2020907592773438
 30
0.0
 11
0.140475830078125
 21
0.2020907592773438
 31
0.0
  0
LINE
  5
193
330
90
100
AcDbEntity
  8
STANDARD
  6
AUSGEZOGEN
 62
     7
440
 33554687
370
    25
100
AcDbLine
 10
0.140475830078125
 20
0.2020907592773438
 30
0.0
 11
0.14327587890625
 21
0.2024908447265625
 31
0.0
  0
LINE
  5
194
330
90
100
AcDbEntity
  8
STANDARD
  6
AUSGEZOGEN
 62
     7
440
 33554687
370
    25
100
AcDbLine
 10
0.14327587890625
 20
0.2024908447265625
 30
0.0
 11
0.14327587890625
 21
0.2016908569335938
 31
0.0
  0
LINE
  5
195
330
90
100
AcDbEntity
  8
STANDARD
  6
AUSGEZOGEN
 62
     7
440
 33554687
370
    25
100
AcDbLine
 10
0.14327587890625
 20
0.2016908569335938
 30
0.0
 11
0.140475830078125
 21
0.2020907592773438
 31
0.0
  0
HATCH
  5
196
330
90
100
AcDbEntity
  8
STANDARD
  6
AUSGEZOGEN
 62
     7
440
 33554687
370
    25
100
AcDbHatch
 10
0.0
 20
0.0
 30
0.0
210
0.0
220
0.0
230
1.0
  2
SOLID
 70
     1
 71
     0
 91
        1
 92
        3
 72
     0
 73
     1
 93
        3
 10
0.14327587890625
 20
0.2016908569335938
 10
0.14327587890625
 20
0.2024908447265625
 10
0.140475830078125
 20
0.2020907592773438
 97
        0
 75
     0
 76
     1
 98
        0
  0
LINE
  5
197
330
90
100
AcDbEntity
  8
STANDARD
  6
AUSGEZOGEN
 62
     7
440
 33554687
370
    25
100
AcDbLine
 10
0.07728369140625
 20
0.147029052734375
 30
0.0
 11
0.0800514526367188
 21
0.1468050537109375
 31
0.0
  0
LINE
  5
198
330
90
100
AcDbEntity
  8
STANDARD
  6
AUSGEZOGEN
 62
     7
440
 33554687
370
    70
100
AcDbLine
 10
0.0800514526367188
 20
0.1468050537109375
 30
0.0
 11
0.0999862670898437
 21
0.1451917724609375
 31
0.0
  0
LINE
  5
199
330
90
100
AcDbEntity
  8
PROJEKT
  6
AUSGEZOGEN
 62
     7
440
 33554687
370
    35
100
AcDbLine
 10
0.0573488159179688
 20
0.148642333984375
 30
0.0
 11
0.0570382080078125
 21
0.1458729858398438
 31
0.0
  0
LINE
  5
19A
330
90
100
AcDbEntity
  8
PROJEKT
  6
AUSGEZOGEN
 62
     7
440
 33554687
370
    35
100
AcDbLine
 10
0.0570382080078125
 20
0.1458729858398438
 30
0.0
 11
0.0576632080078125
 21
0.1384412841796875
 31
0.0
  0
LINE
  5
19B
330
90
100
AcDbEntity
  8
PROJEKT
  6
AUSGEZOGEN
 62
     7
440
 33554687
370
    35
100
AcDbLine
 10
0.0576632080078125
 20
0.1384412841796875
 30
0.0
 11
0.0576575317382813
 21
0.1363956909179687
 31
0.0
  0
LINE
  5
19C
330
90
100
AcDbEntity
  8
PROJEKT
  6
AUSGEZOGEN
 62
     7
440
 33554687
370
    35
100
AcDbLine
 10
0.0576575317382813
 20
0.1363956909179687
 30
0.0
 11
0.0570465698242188
 21
0.13046533203125
 31
0.0
  0
LINE
  5
19D
330
90
100
AcDbEntity
  8
PROJEKT
  6
AUSGEZOGEN
 62
     7
440
 33554687
370
    35
100
AcDbLine
 10
0.07537890625
 20
0.1349274291992187
 30
0.0
 11
0.07370849609375
 21
0.1292045288085938
 31
0.0
  0
LINE
  5
19E
330
90
100
AcDbEntity
  8
PROJEKT
  6
AUSGEZOGEN
 62
     7
440
 33554687
370
    35
100
AcDbLine
 10
0.07728369140625
 20
0.147029052734375
 30
0.0
 11
0.076478759765625
 21
0.1443611450195313
 31
0.0
  0
LINE
  5
19F
330
90
100
AcDbEntity
  8
PROJEKT
  6
AUSGEZOGEN
 62
     7
440
 33554687
370
    35
100
AcDbLine
 10
0.076478759765625
 20
0.1443611450195313
 30
0.0
 11
0.0757532958984375
 21
0.1369384765625
 31
0.0
  0
LINE
  5
1A0
330
90
100
AcDbEntity
  8
PROJEKT
  6
AUSGEZOGEN
 62
     7
440
 33554687
370
    35
100
AcDbLine
 10
0.0757532958984375
 20
0.1369384765625
 30
0.0
 11
0.07537890625
 21
0.1349274291992187
 31
0.0
  0
LINE
  5
1A1
330
90
100
AcDbEntity
  8
PROJEKT
  6
AUSGEZOGEN
 62
     7
440
 33554687
370
    35
100
AcDbLine
 10
0.0803601684570313
 20
0.1345584106445313
 30
0.0
 11
0.0797492065429688
 21
0.1286280517578125
 31
0.0
  0
LINE
  5
1A2
330
90
100
AcDbEntity
  8
PROJEKT
  6
AUSGEZOGEN
 62
     7
440
 33554687
370
    35
100
AcDbLine
 10
0.0800514526367188
 20
0.1468050537109375
 30
0.0
 11
0.0797408447265625
 21
0.1440357055664062
 31
0.0
  0
LINE
  5
1A3
330
90
100
AcDbEntity
  8
PROJEKT
  6
AUSGEZOGEN
 62
     7
440
 33554687
370
    35
100
AcDbLine
 10
0.0797408447265625
 20
0.1440357055664062
 30
0.0
 11
0.0803657836914062
 21
0.1366039428710938
 31
0.0
  0
LINE
  5
1A4
330
90
100
AcDbEntity
  8
PROJEKT
  6
AUSGEZOGEN
 62
     7
440
 33554687
370
    35
100
AcDbLine
 10
0.0803657836914062
 20
0.1366039428710938
 30
0.0
 11
0.0803601684570313
 21
0.1345584106445313
 31
0.0
  0
LINE
  5
1A5
330
90
100
AcDbEntity
  8
PROJEKT
  6
AUSGEZOGEN
 62
     7
440
 33554687
370
    35
100
AcDbLine
 10
0.09808154296875
 20
0.1330902709960937
 30
0.0
 11
0.0964111328125
 21
0.1273672485351562
 31
0.0
  0
LINE
  5
1A6
330
90
100
AcDbEntity
  8
PROJEKT
  6
AUSGEZOGEN
 62
     7
440
 33554687
370
    35
100
AcDbLine
 10
0.0999862670898437
 20
0.1451917724609375
 30
0.0
 11
0.099181396484375
 21
0.1425238647460937
 31
0.0
  0
LINE
  5
1A7
330
90
100
AcDbEntity
  8
PROJEKT
  6
AUSGEZOGEN
 62
     7
440
 33554687
370
    35
100
AcDbLine
 10
0.099181396484375
 20
0.1425238647460937
 30
0.0
 11
0.0984559326171875
 21
0.1351012573242188
 31
0.0
  0
LINE
  5
1A8
330
90
100
AcDbEntity
  8
PROJEKT
  6
AUSGEZOGEN
 62
     7
440
 33554687
370
    35
100
AcDbLine
 10
0.0984559326171875
 20
0.1351012573242188
 30
0.0
 11
0.09808154296875
 21
0.1330902709960937
 31
0.0
  0
LINE
  5
1A9
330
90
100
AcDbEntity
  8
PROJEKT
  6
AUSGEZOGEN
 62
     7
440
 33554687
370
    35
100
AcDbLine
 10
0.0578096923828125
 20
0.12954296875
 30
0.0
 11
0.0635762329101563
 21
0.129366455078125
 31
0.0
  0
LINE
  5
1AA
330
90
100
AcDbEntity
  8
PROJEKT
  6
AUSGEZOGEN
 62
     7
440
 33554687
370
    35
100
AcDbLine
 10
0.0635762329101563
 20
0.129366455078125
 30
0.0
 11
0.0721541137695313
 21
0.1279564819335937
 31
0.0
  0
LINE
  5
1AB
330
90
100
AcDbEntity
  8
PROJEKT
  6
AUSGEZOGEN
 62
     7
440
 33554687
370
    35
100
AcDbLine
 10
0.0570465698242188
 20
0.13046533203125
 30
0.0
 11
0.0578096923828125
 21
0.12954296875
 31
0.0
  0
LINE
  5
1AC
330
90
100
AcDbEntity
  8
PROJEKT
  6
AUSGEZOGEN
 62
     7
440
 33554687
370
    35
100
AcDbLine
 10
0.0721541137695313
 20
0.1279564819335937
 30
0.0
 11
0.0737575073242187
 21
0.1282523193359375
 31
0.0
  0
LINE
  5
1AD
330
90
100
AcDbEntity
  8
PROJEKT
  6
AUSGEZOGEN
 62
     7
440
 33554687
370
    35
100
AcDbLine
 10
0.07370849609375
 20
0.1292045288085938
 30
0.0
 11
0.0737575073242187
 21
0.1282523193359375
 31
0.0
  0
LINE
  5
1AE
330
90
100
AcDbEntity
  8
PROJEKT
  6
AUSGEZOGEN
 62
     7
440
 33554687
370
    35
100
AcDbLine
 10
0.0805123291015625
 20
0.1277056884765625
 30
0.0
 11
0.08627880859375
 21
0.1275291748046875
 31
0.0
  0
LINE
  5
1AF
330
90
100
AcDbEntity
  8
PROJEKT
  6
AUSGEZOGEN
 62
     7
440
 33554687
370
    35
100
AcDbLine
 10
0.08627880859375
 20
0.1275291748046875
 30
0.0
 11
0.0948567504882813
 21
0.1261192016601562
 31
0.0
  0
LINE
  5
1B0
330
90
100
AcDbEntity
  8
PROJEKT
  6
AUSGEZOGEN
 62
     7
440
 33554687
370
    35
100
AcDbLine
 10
0.0797492065429688
 20
0.1286280517578125
 30
0.0
 11
0.0805123291015625
 21
0.1277056884765625
 31
0.0
  0
LINE
  5
1B1
330
90
100
AcDbEntity
  8
PROJEKT
  6
AUSGEZOGEN
 62
     7
440
 33554687
370
    35
100
AcDbLine
 10
0.0948567504882813
 20
0.1261192016601562
 30
0.0
 11
0.0964601440429688
 21
0.1264150390625
 31
0.0
  0
LINE
  5
1B2
330
90
100
AcDbEntity
  8
PROJEKT
  6
AUSGEZOGEN
 62
     7
440
 33554687
370
    35
100
AcDbLine
 10
0.0964111328125
 20
0.1273672485351562
 30
0.0
 11
0.0964601440429688
 21
0.1264150390625
 31
0.0
  0
LINE
  5
1B3
330
90
100
AcDbEntity
  8
PROJEKT
  6
AUSGEZOGEN
 62
     7
440
 33554687
370
    35
100
AcDbLine
 10
0.1025777587890625
 20
0.1409820556640625
 30
0.0
 11
0.1025777587890625
 21
0.1449820556640625
 31
0.0
  0
LINE
  5
1B4
330
90
100
AcDbEntity
  8
STANDARD
  6
AUSGEZOGEN
 62
     7
440
 33554687
370
    25
100
AcDbLine
 10
0.0545810546875
 20
0.1488663330078125
 30
0.0
 11
0.0573488159179688
 21
0.148642333984375
 31
0.0
  0
LINE
  5
1B5
330
90
100
AcDbEntity
  8
STANDARD
  6
AUSGEZOGEN
 62
     7
440
 33554687
370
    70
100
AcDbLine
 10
0.034646240234375
 20
0.1504796142578125
 30
0.0
 11
0.0545810546875
 21
0.1488663330078125
 31
0.0
  0
LINE
  5
1B6
330
90
100
AcDbEntity
  8
PROJEKT
  6
AUSGEZOGEN
 62
     7
440
 33554687
370
    35
100
AcDbLine
 10
0.034646240234375
 20
0.1504796142578125
 30
0.0
 11
0.0343355712890625
 21
0.1477102661132813
 31
0.0
  0
LINE
  5
1B7
330
90
100
AcDbEntity
  8
PROJEKT
  6
AUSGEZOGEN
 62
     7
440
 33554687
370
    35
100
AcDbLine
 10
0.0343355712890625
 20
0.1477102661132813
 30
0.0
 11
0.0349605712890625
 21
0.1402784423828125
 31
0.0
  0
LINE
  5
1B8
330
90
100
AcDbEntity
  8
PROJEKT
  6
AUSGEZOGEN
 62
     7
440
 33554687
370
    35
100
AcDbLine
 10
0.0349605712890625
 20
0.1402784423828125
 30
0.0
 11
0.0349549560546875
 21
0.13823291015625
 31
0.0
  0
LINE
  5
1B9
330
90
100
AcDbEntity
  8
PROJEKT
  6
AUSGEZOGEN
 62
     7
440
 33554687
370
    35
100
AcDbLine
 10
0.0349549560546875
 20
0.13823291015625
 30
0.0
 11
0.0343439331054688
 21
0.1323026123046875
 31
0.0
  0
LINE
  5
1BA
330
90
100
AcDbEntity
  8
PROJEKT
  6
AUSGEZOGEN
 62
     7
440
 33554687
370
    35
100
AcDbLine
 10
0.05267626953125
 20
0.1367647094726563
 30
0.0
 11
0.051005859375
 21
0.1310418701171875
 31
0.0
  0
LINE
  5
1BB
330
90
100
AcDbEntity
  8
PROJEKT
  6
AUSGEZOGEN
 62
     7
440
 33554687
370
    35
100
AcDbLine
 10
0.0545810546875
 20
0.1488663330078125
 30
0.0
 11
0.053776123046875
 21
0.1461984252929688
 31
0.0
  0
LINE
  5
1BC
330
90
100
AcDbEntity
  8
PROJEKT
  6
AUSGEZOGEN
 62
     7
440
 33554687
370
    35
100
AcDbLine
 10
0.053776123046875
 20
0.1461984252929688
 30
0.0
 11
0.0530507202148437
 21
0.1387757568359375
 31
0.0
  0
LINE
  5
1BD
330
90
100
AcDbEntity
  8
PROJEKT
  6
AUSGEZOGEN
 62
     7
440
 33554687
370
    35
100
AcDbLine
 10
0.0530507202148437
 20
0.1387757568359375
 30
0.0
 11
0.05267626953125
 21
0.1367647094726563
 31
0.0
  0
LINE
  5
1BE
330
90
100
AcDbEntity
  8
PROJEKT
  6
AUSGEZOGEN
 62
     7
440
 33554687
370
    35
100
AcDbLine
 10
0.0351071166992188
 20
0.1313802490234375
 30
0.0
 11
0.0408735961914063
 21
0.1312037353515625
 31
0.0
  0
LINE
  5
1BF
330
90
100
AcDbEntity
  8
PROJEKT
  6
AUSGEZOGEN
 62
     7
440
 33554687
370
    35
100
AcDbLine
 10
0.0408735961914063
 20
0.1312037353515625
 30
0.0
 11
0.0494515380859375
 21
0.1297937622070313
 31
0.0
  0
LINE
  5
1C0
330
90
100
AcDbEntity
  8
PROJEKT
  6
AUSGEZOGEN
 62
     7
440
 33554687
370
    35
100
AcDbLine
 10
0.0343439331054688
 20
0.1323026123046875
 30
0.0
 11
0.0351071166992188
 21
0.1313802490234375
 31
0.0
  0
LINE
  5
1C1
330
90
100
AcDbEntity
  8
PROJEKT
  6
AUSGEZOGEN
 62
     7
440
 33554687
370
    35
100
AcDbLine
 10
0.0494515380859375
 20
0.1297937622070313
 30
0.0
 11
0.0510549926757813
 21
0.1300895385742188
 31
0.0
  0
LINE
  5
1C2
330
90
100
AcDbEntity
  8
PROJEKT
  6
AUSGEZOGEN
 62
     7
440
 33554687
370
    35
100
AcDbLine
 10
0.051005859375
 20
0.1310418701171875
 30
0.0
 11
0.0510549926757813
 21
0.1300895385742188
 31
0.0
  0
LINE
  5
1C3
330
90
100
AcDbEntity
  8
STANDARD
  6
AUSGEZOGEN
 62
     7
440
 33554687
370
    25
100
AcDbLine
 10
0.03187841796875
 20
0.15070361328125
 30
0.0
 11
0.034646240234375
 21
0.1504796142578125
 31
0.0
  0
LINE
  5
1C4
330
90
100
AcDbEntity
  8
PROJEKT
  6
AUSGEZOGEN
 62
     7
440
 33554687
370
    35
100
AcDbLine
 10
0.03187841796875
 20
0.15070361328125
 30
0.0
 11
0.0310735473632813
 21
0.14803564453125
 31
0.0
  0
LINE
  5
1C5
330
90
100
AcDbEntity
  8
PROJEKT
  6
AUSGEZOGEN
 62
     7
440
 33554687
370
    35
100
AcDbLine
 10
0.0310735473632813
 20
0.14803564453125
 30
0.0
 11
0.0303480834960938
 21
0.140613037109375
 31
0.0
  0
LINE
  5
1C6
330
90
100
AcDbEntity
  8
PROJEKT
  6
AUSGEZOGEN
 62
     7
440
 33554687
370
    35
100
AcDbLine
 10
0.0303480834960938
 20
0.140613037109375
 30
0.0
 11
0.0299736938476562
 21
0.1386019897460938
 31
0.0
  0
LINE
  5
1C7
330
90
100
AcDbEntity
  8
PROJEKT
  6
AUSGEZOGEN
 62
     7
440
 33554687
370
    35
100
AcDbLine
 10
0.0299736938476562
 20
0.1386019897460938
 30
0.0
 11
0.0284374389648437
 21
0.1333385620117188
 31
0.0
  0
LINE
  5
1C8
330
90
100
AcDbEntity
  8
STANDARD
  6
AUSGEZOGEN
 62
     7
440
 33554687
370
    70
100
AcDbLine
 10
0.0284374389648437
 20
0.1509820556640625
 30
0.0
 11
0.03187841796875
 21
0.15070361328125
 31
0.0
  0
LINE
  5
1C9
330
90
100
AcDbEntity
  8
STANDARD
  6
AUSGEZOGEN
 62
     7
440
 33554687
370
    13
100
AcDbLine
 10
0.0296279296875
 20
0.1374176025390625
 30
0.0
 11
0.03482763671875
 21
0.136996826171875
 31
0.0
  0
LINE
  5
1CA
330
90
100
AcDbEntity
  8
STANDARD
  6
AUSGEZOGEN
 62
     7
440
 33554687
370
    13
100
AcDbLine
 10
0.05233056640625
 20
0.135580322265625
 30
0.0
 11
0.0575301513671875
 21
0.1351595458984375
 31
0.0
  0
LINE
  5
1CB
330
90
100
AcDbEntity
  8
STANDARD
  6
AUSGEZOGEN
 62
     7
440
 33554687
370
    13
100
AcDbLine
 10
0.075033203125
 20
0.1337430419921875
 30
0.0
 11
0.0802327880859375
 21
0.1333223266601563
 31
0.0
  0
LINE
  5
1CC
330
90
100
AcDbEntity
  8
PROJEKT
  6
AUSGEZOGEN
 62
     7
440
 33554687
370
    35
100
AcDbLine
 10
0.1030396118164063
 20
0.1346265258789063
 30
0.0
 11
0.1024281005859375
 21
0.129326416015625
 31
0.0
  0
LINE
  5
1CD
330
90
100
AcDbEntity
  8
STANDARD
  6
AUSGEZOGEN
 62
     7
440
 33554687
370
    13
100
AcDbLine
 10
0.0977357788085938
 20
0.1319058837890625
 30
0.0
 11
0.1026795654296875
 21
0.1315057373046875
 31
0.0
  0
LINE
  5
1CE
330
90
100
AcDbEntity
  8
STANDARD
  6
AUSGEZOGEN
 62
     7
440
 33554687
370
    25
100
AcDbLine
 10
0.0284374389648437
 20
0.1509820556640625
 30
0.0
 11
0.1025777587890625
 21
0.1449820556640625
 31
0.0
  0
LINE
  5
1CF
330
90
100
AcDbEntity
  8
STANDARD
  6
AUSGEZOGEN
 62
     7
440
 33554687
370
    25
100
AcDbLine
 10
0.0787670288085938
 20
0.157133056640625
 30
0.0
 11
0.0807464599609375
 21
0.157133056640625
 31
0.0
  0
LINE
  5
1D0
330
90
100
AcDbEntity
  8
STANDARD
  6
AUSGEZOGEN
 62
     7
440
 33554687
370
    25
100
AcDbLine
 10
0.0787670288085938
 20
0.1469090576171875
 30
0.0
 11
0.0787670288085938
 21
0.157133056640625
 31
0.0
  0
LINE
  5
1D1
330
90
100
AcDbEntity
  8
STANDARD
  6
AUSGEZOGEN
 62
     7
440
 33554687
370
    25
100
AcDbLine
 10
0.0787670288085938
 20
0.1497090454101563
 30
0.0
 11
0.0787670288085938
 21
0.1499090576171875
 31
0.0
  0
LINE
  5
1D2
330
90
100
AcDbEntity
  8
STANDARD
  6
AUSGEZOGEN
 62
     7
440
 33554687
370
    25
100
AcDbLine
 10
0.0787670288085938
 20
0.1469090576171875
 30
0.0
 11
0.0787670288085938
 21
0.1469090576171875
 31
0.0
  0
LINE
  5
1D3
330
90
100
AcDbEntity
  8
STANDARD
  6
AUSGEZOGEN
 62
     7
440
 33554687
370
    25
100
AcDbLine
 10
0.0787670288085938
 20
0.1469090576171875
 30
0.0
 11
0.0787670288085938
 21
0.1469090576171875
 31
0.0
  0
LINE
  5
1D4
330
90
100
AcDbEntity
  8
STANDARD
  6
AUSGEZOGEN
 62
     7
440
 33554687
370
    25
100
AcDbLine
 10
0.0787670288085938
 20
0.1469090576171875
 30
0.0
 11
0.0787670288085938
 21
0.1469090576171875
 31
0.0
  0
LINE
  5
1D5
330
90
100
AcDbEntity
  8
STANDARD
  6
AUSGEZOGEN
 62
     7
440
 33554687
370
    25
100
AcDbLine
 10
0.0787670288085938
 20
0.1469090576171875
 30
0.0
 11
0.0783670043945312
 21
0.1497090454101563
 31
0.0
  0
LINE
  5
1D6
330
90
100
AcDbEntity
  8
STANDARD
  6
AUSGEZOGEN
 62
     7
440
 33554687
370
    25
100
AcDbLine
 10
0.0783670043945312
 20
0.1497090454101563
 30
0.0
 11
0.0791669921875
 21
0.1497090454101563
 31
0.0
  0
LINE
  5
1D7
330
90
100
AcDbEntity
  8
STANDARD
  6
AUSGEZOGEN
 62
     7
440
 33554687
370
    25
100
AcDbLine
 10
0.0791669921875
 20
0.1497090454101563
 30
0.0
 11
0.0787670288085938
 21
0.1469090576171875
 31
0.0
  0
HATCH
  5
1D8
330
90
100
AcDbEntity
  8
STANDARD
  6
AUSGEZOGEN
 62
     7
440
 33554687
370
    25
100
AcDbHatch
 10
0.0
 20
0.0
 30
0.0
210
0.0
220
0.0
230
1.0
  2
SOLID
 70
     1
 71
     0
 91
        1
 92
        3
 72
     0
 73
     1
 93
        3
 10
0.0791669921875
 20
0.1497090454101563
 10
0.0783670043945312
 20
0.1497090454101563
 10
0.0787670288085938
 20
0.1469090576171875
 97
        0
 75
     0
 76
     1
 98
        0
  0
LINE
  5
1D9
330
90
100
AcDbEntity
  8
STANDARD
  6
AUSGEZOGEN
 62
     7
440
 33554687
370
    70
100
AcDbLine
 10
0.0573488159179688
 20
0.148642333984375
 30
0.0
 11
0.07728369140625
 21
0.147029052734375
 31
0.0
  0
LINE
  5
1DA
330
90
100
AcDbEntity
  8
STANDARD
  6
AUSGEZOGEN
 62
     7
440
 33554687
370
    25
100
AcDbLine
 10
0.0660621948242188
 20
0.1479371948242187
 30
0.0
 11
0.0778534545898437
 21
0.161133056640625
 31
0.0
  0
LINE
  5
1DB
330
90
100
AcDbEntity
  8
STANDARD
  6
AUSGEZOGEN
 62
     7
440
 33554687
370
    25
100
AcDbLine
 10
0.0679277954101563
 20
0.1500250854492187
 30
0.0
 11
0.0680610961914063
 21
0.1501742553710937
 31
0.0
  0
LINE
  5
1DC
330
90
100
AcDbEntity
  8
STANDARD
  6
AUSGEZOGEN
 62
     7
440
 33554687
370
    25
100
AcDbLine
 10
0.0660621948242188
 20
0.1479371948242187
 30
0.0
 11
0.0660621948242188
 21
0.1479371948242187
 31
0.0
  0
LINE
  5
1DD
330
90
100
AcDbEntity
  8
STANDARD
  6
AUSGEZOGEN
 62
     7
440
 33554687
370
    25
100
AcDbLine
 10
0.0660621948242188
 20
0.1479371948242187
 30
0.0
 11
0.0660621948242188
 21
0.1479371948242187
 31
0.0
  0
LINE
  5
1DE
330
90
100
AcDbEntity
  8
STANDARD
  6
AUSGEZOGEN
 62
     7
440
 33554687
370
    25
100
AcDbLine
 10
0.0660621948242188
 20
0.1479371948242187
 30
0.0
 11
0.0660621948242188
 21
0.1479371948242187
 31
0.0
  0
LINE
  5
1DF
330
90
100
AcDbEntity
  8
STANDARD
  6
AUSGEZOGEN
 62
     7
440
 33554687
370
    25
100
AcDbLine
 10
0.0660621948242188
 20
0.1479371948242187
 30
0.0
 11
0.0676295166015625
 21
0.1502916259765625
 31
0.0
  0
LINE
  5
1E0
330
90
100
AcDbEntity
  8
STANDARD
  6
AUSGEZOGEN
 62
     7
440
 33554687
370
    25
100
AcDbLine
 10
0.0676295166015625
 20
0.1502916259765625
 30
0.0
 11
0.0682261352539063
 21
0.1497586059570312
 31
0.0
  0
LINE
  5
1E1
330
90
100
AcDbEntity
  8
STANDARD
  6
AUSGEZOGEN
 62
     7
440
 33554687
370
    25
100
AcDbLine
 10
0.0682261352539063
 20
0.1497586059570312
 30
0.0
 11
0.0660621948242188
 21
0.1479371948242187
 31
0.0
  0
HATCH
  5
1E2
330
90
100
AcDbEntity
  8
STANDARD
  6
AUSGEZOGEN
 62
     7
440
 33554687
370
    25
100
AcDbHatch
 10
0.0
 20
0.0
 30
0.0
210
0.0
220
0.0
230
1.0
  2
SOLID
 70
     1
 71
     0
 91
        1
 92
        3
 72
     0
 73
     1
 93
        3
 10
0.0682261352539063
 20
0.1497586059570312
 10
0.0676295166015625
 20
0.1502916259765625
 10
0.0660621948242188
 20
0.1479371948242187
 97
        0
 75
     0
 76
     1
 98
        0
  0
LINE
  5
1E3
330
90
100
AcDbEntity
  8
STANDARD
  6
AUSGEZOGEN
 62
     7
440
 33554687
370
    25
100
AcDbLine
 10
0.0284374389648437
 20
0.0849634399414062
 30
0.0
 11
0.0885777587890625
 21
0.0849702758789063
 31
0.0
  0
LINE
  5
1E4
330
90
100
AcDbEntity
  8
STANDARD
  6
AUSGEZOGEN
 62
     7
440
 33554687
370
    25
100
AcDbLine
 10
0.0284374389648437
 20
0.1029722900390625
 30
0.0
 11
0.0885777587890625
 21
0.1029757690429687
 31
0.0
  0
LINE
  5
1E5
330
90
100
AcDbEntity
  8
STANDARD
  6
AUSGEZOGEN
 62
     7
440
 33554687
370
    25
100
AcDbLine
 10
0.0284374389648437
 20
0.1169820556640625
 30
0.0
 11
0.0885777587890625
 21
0.1169820556640625
 31
0.0
  0
LINE
  5
1E6
330
90
100
AcDbEntity
  8
STANDARD
  6
AUSGEZOGEN
 62
     7
440
 33554687
370
    25
100
AcDbLine
 10
0.0885777587890625
 20
0.122978271484375
 30
0.0
 11
0.0885777587890625
 21
0.0799820556640625
 31
0.0
  0
LINE
  5
1E7
330
90
100
AcDbEntity
  8
STANDARD
  6
AUSGEZOGEN
 62
     7
440
 33554687
370
    25
100
AcDbLine
 10
0.0284374389648437
 20
0.122978271484375
 30
0.0
 11
0.0885777587890625
 21
0.122978271484375
 31
0.0
  0
LINE
  5
1E8
330
90
100
AcDbEntity
  8
STANDARD
  6
VERDECKT2_S2
 62
     7
440
 33554687
370
    25
100
AcDbLine
 10
0.0885777587890625
 20
0.122978271484375
 30
0.0
 11
0.0985777587890625
 21
0.122978271484375
 31
0.0
  0
LINE
  5
1E9
330
90
100
AcDbEntity
  8
STANDARD
  6
AUSGEZOGEN
 62
     7
440
 33554687
370
    25
100
AcDbLine
 10
0.1085266723632813
 20
0.0780133056640625
 30
0.0
 11
0.093302001953125
 21
0.0990867919921875
 31
0.0
  0
LINE
  5
1EA
330
90
100
AcDbEntity
  8
STANDARD
  6
AUSGEZOGEN
 62
     7
440
 33554687
370
    25
100
AcDbLine
 10
0.0930384521484375
 20
0.0994515380859375
 30
0.0
 11
0.0930384521484375
 21
0.0994515380859375
 31
0.0
  0
LINE
  5
1EB
330
90
100
AcDbEntity
  8
STANDARD
  6
AUSGEZOGEN
 62
     7
440
 33554687
370
    25
100
AcDbLine
 10
0.0935654907226563
 20
0.0987221069335937
 30
0.0
 11
0.0935654907226563
 21
0.0987221069335937
 31
0.0
  0
LINE
  5
1EC
330
90
100
AcDbEntity
  8
STANDARD
  6
AUSGEZOGEN
 62
     7
440
 33554687
370
    25
100
AcDbLine
 10
0.0929371948242187
 20
0.0988232421875
 30
0.0
 11
0.0929371948242187
 21
0.0988232421875
 31
0.0
  0
LINE
  5
1ED
330
90
100
AcDbEntity
  8
STANDARD
  6
AUSGEZOGEN
 62
     7
440
 33554687
370
    25
100
AcDbLine
 10
0.093666748046875
 20
0.0993502807617188
 30
0.0
 11
0.093666748046875
 21
0.0993502807617188
 31
0.0
  0
CIRCLE
  5
1EE
330
90
100
AcDbEntity
  8
STANDARD
  6
AUSGEZOGEN
 62
     7
440
 33554687
370
    25
100
AcDbCircle
 10
0.093302001953125
 20
0.0990867919921875
 30
0.0
 40
0.0004500000039116
  0
HATCH
  5
1EF
330
90
100
AcDbEntity
  8
STANDARD
  6
AUSGEZOGEN
 62
     7
440
 33554687
370
    25
100
AcDbHatch
 10
0.0
 20
0.0
 30
0.0
210
0.0
220
0.0
230
1.0
  2
SOLID
 70
     1
 71
     0
 91
        1
 92
        3
 72
     0
 73
     1
 93
        3
 10
0.0937109985351563
 20
0.0989049072265625
 10
0.09334619140625
 20
0.098641357421875
 10
0.0935654907226563
 20
0.0987221069335937
 97
        0
 75
     0
 76
     1
 98
        0
  0
HATCH
  5
1F0
330
90
100
AcDbEntity
  8
STANDARD
  6
AUSGEZOGEN
 62
     7
440
 33554687
370
    25
100
AcDbHatch
 10
0.0
 20
0.0
 30
0.0
210
0.0
220
0.0
230
1.0
  2
SOLID
 70
     1
 71
     0
 91
        1
 92
        3
 72
     0
 73
     1
 93
        3
 10
0.09334619140625
 20
0.098641357421875
 10
0.0937109985351563
 20
0.0989049072265625
 10
0.0937474365234375
 20
0.099131103515625
 97
        0
 75
     0
 76
     1
 98
        0
  0
HATCH
  5
1F1
330
90
100
AcDbEntity
  8
STANDARD
  6
AUSGEZOGEN
 62
     7
440
 33554687
370
    25
100
AcDbHatch
 10
0.0
 20
0.0
 30
0.0
210
0.0
220
0.0
230
1.0
  2
SOLID
 70
     1
 71
     0
 91
        1
 92
        3
 72
     0
 73
     1
 93
        3
 10
0.09334619140625
 20
0.098641357421875
 10
0.0937474365234375
 20
0.099131103515625
 10
0.0931199951171875
 20
0.0986777954101563
 97
        0
 75
     0
 76
     1
 98
        0
  0
HATCH
  5
1F2
330
90
100
AcDbEntity
  8
STANDARD
  6
AUSGEZOGEN
 62
     7
440
 33554687
370
    25
100
AcDbHatch
 10
0.0
 20
0.0
 30
0.0
210
0.0
220
0.0
230
1.0
  2
SOLID
 70
     1
 71
     0
 91
        1
 92
        3
 72
     0
 73
     1
 93
        3
 10
0.0931199951171875
 20
0.0986777954101563
 10
0.0937474365234375
 20
0.099131103515625
 10
0.093666748046875
 20
0.0993502807617188
 97
        0
 75
     0
 76
     1
 98
        0
  0
HATCH
  5
1F3
330
90
100
AcDbEntity
  8
STANDARD
  6
AUSGEZOGEN
 62
     7
440
 33554687
370
    25
100
AcDbHatch
 10
0.0
 20
0.0
 30
0.0
210
0.0
220
0.0
230
1.0
  2
SOLID
 70
     1
 71
     0
 91
        1
 92
        3
 72
     0
 73
     1
 93
        3
 10
0.0931199951171875
 20
0.0986777954101563
 10
0.093666748046875
 20
0.0993502807617188
 10
0.0929371948242187
 20
0.0988232421875
 97
        0
 75
     0
 76
     1
 98
        0
  0
HATCH
  5
1F4
330
90
100
AcDbEntity
  8
STANDARD
  6
AUSGEZOGEN
 62
     7
440
 33554687
370
    25
100
AcDbHatch
 10
0.0
 20
0.0
 30
0.0
210
0.0
220
0.0
230
1.0
  2
SOLID
 70
     1
 71
     0
 91
        1
 92
        3
 72
     0
 73
     1
 93
        3
 10
0.0929371948242187
 20
0.0988232421875
 10
0.093666748046875
 20
0.0993502807617188
 10
0.09348388671875
 20
0.099495849609375
 97
        0
 75
     0
 76
     1
 98
        0
  0
HATCH
  5
1F5
330
90
100
AcDbEntity
  8
STANDARD
  6
AUSGEZOGEN
 62
     7
440
 33554687
370
    25
100
AcDbHatch
 10
0.0
 20
0.0
 30
0.0
210
0.0
220
0.0
230
1.0
  2
SOLID
 70
     1
 71
     0
 91
        1
 92
        3
 72
     0
 73
     1
 93
        3
 10
0.0929371948242187
 20
0.0988232421875
 10
0.09348388671875
 20
0.099495849609375
 10
0.0928565063476563
 20
0.0990425415039062
 97
        0
 75
     0
 76
     1
 98
        0
  0
HATCH
  5
1F6
330
90
100
AcDbEntity
  8
STANDARD
  6
AUSGEZOGEN
 62
     7
440
 33554687
370
    25
100
AcDbHatch
 10
0.0
 20
0.0
 30
0.0
210
0.0
220
0.0
230
1.0
  2
SOLID
 70
     1
 71
     0
 91
        1
 92
        3
 72
     0
 73
     1
 93
        3
 10
0.0928565063476563
 20
0.0990425415039062
 10
0.09348388671875
 20
0.099495849609375
 10
0.0932577514648437
 20
0.0995322875976563
 97
        0
 75
     0
 76
     1
 98
        0
  0
HATCH
  5
1F7
330
90
100
AcDbEntity
  8
STANDARD
  6
AUSGEZOGEN
 62
     7
440
 33554687
370
    25
100
AcDbHatch
 10
0.0
 20
0.0
 30
0.0
210
0.0
220
0.0
230
1.0
  2
SOLID
 70
     1
 71
     0
 91
        1
 92
        3
 72
     0
 73
     1
 93
        3
 10
0.0928565063476563
 20
0.0990425415039062
 10
0.0932577514648437
 20
0.0995322875976563
 10
0.0928930053710938
 20
0.099268798828125
 97
        0
 75
     0
 76
     1
 98
        0
  0
HATCH
  5
1F8
330
90
100
AcDbEntity
  8
STANDARD
  6
AUSGEZOGEN
 62
     7
440
 33554687
370
    25
100
AcDbHatch
 10
0.0
 20
0.0
 30
0.0
210
0.0
220
0.0
230
1.0
  2
SOLID
 70
     1
 71
     0
 91
        1
 92
        3
 72
     0
 73
     1
 93
        3
 10
0.0928930053710938
 20
0.099268798828125
 10
0.0932577514648437
 20
0.0995322875976563
 10
0.0930384521484375
 20
0.0994515380859375
 97
        0
 75
     0
 76
     1
 98
        0
  0
MTEXT
  5
1F9
330
90
100
AcDbEntity
  8
STANDARD
  6
AUSGEZOGEN
 62
     7
440
 33554687
370
    25
100
AcDbMText
 10
0.116475830078125
 20
0.2030075073242188
 30
0.0
 40
0.0025
 41
0.008668213522331
 71
     7
 72
     5
  1
\W1.00;Insel
  7
ARIAL
 73
     1
 44
1.0
  0
MTEXT
  5
1FA
330
90
100
AcDbEntity
  8
STANDARD
  6
AUSGEZOGEN
 62
     7
440
 33554687
370
    25
100
AcDbMText
 10
0.1656618041992187
 20
0.1192210693359375
 30
0.0
 40
0.002
 41
0.0161370031392315
 71
     7
 72
     5
  1
\W1.00;Deckschicht
  7
ARIAL
 73
     1
 44
1.0
  0
MTEXT
  5
1FB
330
90
100
AcDbEntity
  8
STANDARD
  6
AUSGEZOGEN
 62
     7
440
 33554687
370
    25
100
AcDbMText
 10
0.1548091430664063
 20
0.2030075073242188
 30
0.0
 40
0.0025
 41
0.022922414126193
 71
     7
 72
     5
  1
\W1.00;Fahrbahn aus
  7
ARIAL
 73
     1
 44
1.0
  0
MTEXT
  5
1FC
330
90
100
AcDbEntity
  8
STANDARD
  6
AUSGEZOGEN
 62
     7
440
 33554687
370
    25
100
AcDbMText
 10
0.146475830078125
 20
0.1992575073242188
 30
0.0
 40
0.0025
 41
0.0312538660871019
 71
     7
 72
     5
  1
\W1.00;Asphalt bzw. Beton
  7
ARIAL
 73
     1
 44
1.0
  0
LINE
  5
1FD
330
90
100
AcDbEntity
  8
STANDARD
  6
AUSGEZOGEN
 62
     7
440
 33554687
370
    25
100
AcDbLine
 10
0.155477783203125
 20
0.1220782470703125
 30
0.0
 11
0.1536777954101562
 21
0.1238782348632813
 31
0.0
  0
LINE
  5
1FE
330
90
100
AcDbEntity
  8
STANDARD
  6
AUSGEZOGEN
 62
     7
440
 33554687
370
    25
100
AcDbLine
 10
0.155477783203125
 20
0.1360820922851562
 30
0.0
 11
0.1536777954101562
 21
0.137882080078125
 31
0.0
  0
LINE
  5
1FF
330
90
100
AcDbEntity
  8
STANDARD
  6
AUSGEZOGEN
 62
     7
440
 33554687
370
    25
100
AcDbLine
 10
0.155477783203125
 20
0.1440820922851563
 30
0.0
 11
0.1536777954101562
 21
0.145882080078125
 31
0.0
  0
LINE
  5
200
330
90
100
AcDbEntity
  8
STANDARD
  6
AUSGEZOGEN
 62
     7
440
 33554687
370
    25
100
AcDbLine
 10
0.1545777587890625
 20
0.122978271484375
 30
0.0
 11
0.1530778198242188
 21
0.122978271484375
 31
0.0
  0
LINE
  5
201
330
90
100
AcDbEntity
  8
STANDARD
  6
AUSGEZOGEN
 62
     7
440
 33554687
370
    25
100
AcDbLine
 10
0.1545777587890625
 20
0.122978271484375
 30
0.0
 11
0.1560778198242188
 21
0.122978271484375
 31
0.0
  0
LINE
  5
202
330
90
100
AcDbEntity
  8
STANDARD
  6
AUSGEZOGEN
 62
     7
440
 33554687
370
    25
100
AcDbLine
 10
0.1545777587890625
 20
0.1369820556640625
 30
0.0
 11
0.1530778198242188
 21
0.1369820556640625
 31
0.0
  0
LINE
  5
203
330
90
100
AcDbEntity
  8
STANDARD
  6
AUSGEZOGEN
 62
     7
440
 33554687
370
    25
100
AcDbLine
 10
0.1545777587890625
 20
0.1369820556640625
 30
0.0
 11
0.1560778198242188
 21
0.1369820556640625
 31
0.0
  0
LINE
  5
204
330
90
100
AcDbEntity
  8
STANDARD
  6
AUSGEZOGEN
 62
     7
440
 33554687
370
    25
100
AcDbLine
 10
0.1545777587890625
 20
0.1449820556640625
 30
0.0
 11
0.1530778198242188
 21
0.1449820556640625
 31
0.0
  0
LINE
  5
205
330
90
100
AcDbEntity
  8
STANDARD
  6
AUSGEZOGEN
 62
     7
440
 33554687
370
    25
100
AcDbLine
 10
0.1545777587890625
 20
0.1449820556640625
 30
0.0
 11
0.1560778198242188
 21
0.1449820556640625
 31
0.0
  0
LINE
  5
206
330
90
100
AcDbEntity
  8
STANDARD
  6
AUSGEZOGEN
 62
     7
440
 33554687
370
    25
100
AcDbLine
 10
0.1545777587890625
 20
0.122978271484375
 30
0.0
 11
0.1545777587890625
 21
0.122978271484375
 31
0.0
  0
LINE
  5
207
330
90
100
AcDbEntity
  8
STANDARD
  6
AUSGEZOGEN
 62
     7
440
 33554687
370
    25
100
AcDbLine
 10
0.1545777587890625
 20
0.1369820556640625
 30
0.0
 11
0.1538778076171875
 21
0.1369820556640625
 31
0.0
  0
LINE
  5
208
330
90
100
AcDbEntity
  8
STANDARD
  6
AUSGEZOGEN
 62
     7
440
 33554687
370
    25
100
AcDbLine
 10
0.1538778076171875
 20
0.1369820556640625
 30
0.0
 11
0.1538778076171875
 21
0.1369820556640625
 31
0.0
  0
LINE
  5
209
330
90
100
AcDbEntity
  8
STANDARD
  6
AUSGEZOGEN
 62
     7
440
 33554687
370
    25
100
AcDbLine
 10
0.1538778076171875
 20
0.1369820556640625
 30
0.0
 11
0.1455777587890625
 21
0.1369820556640625
 31
0.0
  0
LINE
  5
20A
330
90
100
AcDbEntity
  8
STANDARD
  6
AUSGEZOGEN
 62
     7
440
 33554687
370
    25
100
AcDbLine
 10
0.1545777587890625
 20
0.1449820556640625
 30
0.0
 11
0.1245777587890625
 21
0.1449820556640625
 31
0.0
  0
LINE
  5
20B
330
90
100
AcDbEntity
  8
STANDARD
  6
AUSGEZOGEN
 62
     7
440
 33554687
370
    25
100
AcDbLine
 10
0.1545777587890625
 20
0.122978271484375
 30
0.0
 11
0.1545777587890625
 21
0.121478271484375
 31
0.0
  0
LINE
  5
20C
330
90
100
AcDbEntity
  8
STANDARD
  6
AUSGEZOGEN
 62
     7
440
 33554687
370
    25
100
AcDbLine
 10
0.1545777587890625
 20
0.1449820556640625
 30
0.0
 11
0.1545777587890625
 21
0.1464821166992188
 31
0.0
  0
MTEXT
  5
20D
330
90
100
AcDbEntity
  8
STANDARD
  6
AUSGEZOGEN
 62
     7
440
 33554687
370
    25
100
AcDbMText
 10
0.1535777587890625
 20
0.1292666625976563
 30
0.0
 40
0.002
 41
0.0025569742941424
 71
     7
 72
     5
  1
\W0.99;7
  7
ARIAL
 11
-4.371139000186241E-8
 21
0.9999999999999989
 31
0.0
 73
     1
 44
1.0
  0
MTEXT
  5
20E
330
90
100
AcDbEntity
  8
STANDARD
  6
AUSGEZOGEN
 62
     7
440
 33554687
370
    25
100
AcDbMText
 10
0.1535777587890625
 20
0.140272705078125
 30
0.0
 40
0.002
 41
0.0025569742941424
 71
     7
 72
     5
  1
\W0.99;4
  7
ARIAL
 11
-4.371139000186241E-8
 21
0.9999999999999989
 31
0.0
 73
     1
 44
1.0
  0
LINE
  5
20F
330
90
100
AcDbEntity
  8
STANDARD
  6
AUSGEZOGEN
 62
     7
440
 33554687
370
    25
100
AcDbLine
 10
0.1545777587890625
 20
0.122978271484375
 30
0.0
 11
0.1545777587890625
 21
0.1302619841188933
 31
0.0
  0
LINE
  5
210
330
90
100
AcDbEntity
  8
STANDARD
  6
AUSGEZOGEN
 62
     7
440
 33554687
370
    25
100
AcDbLine
 10
0.1545777587890625
 20
0.1302619841188933
 30
0.0
 11
0.1545777587890625
 21
0.1302619841188933
 31
0.0
  0
LINE
  5
211
330
90
100
AcDbEntity
  8
STANDARD
  6
AUSGEZOGEN
 62
     7
440
 33554687
370
    25
100
AcDbLine
 10
0.1545777587890625
 20
0.1302619841188933
 30
0.0
 11
0.1545777587890625
 21
0.1369820556640625
 31
0.0
  0
LINE
  5
212
330
90
100
AcDbEntity
  8
STANDARD
  6
AUSGEZOGEN
 62
     7
440
 33554687
370
    25
100
AcDbLine
 10
0.1545777587890625
 20
0.1369820556640625
 30
0.0
 11
0.1545777587890625
 21
0.1449820556640625
 31
0.0
  0
MTEXT
  5
213
330
90
100
AcDbEntity
  8
STANDARD
  6
AUSGEZOGEN
 62
     7
440
 33554687
370
    25
100
AcDbMText
 10
0.0821652221679687
 20
0.1602874145507812
 30
0.0
 40
0.002
 41
0.0286272666235043
 71
     7
 72
     5
  1
\W0.99;Kleinpflasterstein 8/11
  7
ARIAL
 73
     1
 44
1.0
  0
MTEXT
  5
214
330
90
100
AcDbEntity
  8
STANDARD
  6
AUSGEZOGEN
 62
     7
440
 33554687
370
    25
100
AcDbMText
 10
0.135464111328125
 20
0.1083667602539062
 30
0.0
 40
0.002
 41
0.025838650041832
 71
     7
 72
     5
  1
\W1.01;Inselstein aufkleben
  7
ARIAL
 73
     1
 44
1.0
  0
MTEXT
  5
215
330
90
100
AcDbEntity
  8
STANDARD
  6
AUSGEZOGEN
 62
     7
440
 33554687
370
    25
100
AcDbMText
 10
0.1658997192382813
 20
0.09321435546875
 30
0.0
 40
0.002
 41
0.0155029049661087
 71
     7
 72
     5
  1
\W1.00;Tragschicht
  7
ARIAL
 73
     1
 44
1.0
  0
MTEXT
  5
216
330
90
100
AcDbEntity
  8
STANDARD
  6
AUSGEZOGEN
 62
     7
440
 33554687
370
    25
100
AcDbMText
 10
0.16565478515625
 20
0.1085115356445313
 30
0.0
 40
0.002
 41
0.0178714722586282
 71
     7
 72
     5
  1
\W1.00;Binderschicht
  7
ARIAL
 73
     1
 44
1.0
  0
MTEXT
  5
217
330
90
100
AcDbEntity
  8
STANDARD
  6
AUSGEZOGEN
 62
     7
440
 33554687
370
    25
100
AcDbMText
 10
0.0821652221679687
 20
0.1562874145507812
 30
0.0
 40
0.002
 41
0.0089695199731454
 71
     7
 72
     5
  1
\W1.00;Fugen
  7
ARIAL
 73
     1
 44
1.0
  0
MTEXT
  5
218
330
90
100
AcDbEntity
  8
STANDARD
  6
AUSGEZOGEN
 62
     7
440
 33554687
370
    25
100
AcDbMText
 10
0.0282073974609375
 20
0.1250249633789063
 30
0.0
 40
0.002
 41
0.0407026265279321
 71
     7
 72
     5
  1
\W1.00;Splittbeton 4/8 CEM I 250 kg/m³
  7
ARIAL
 73
     1
 44
1.0
  0
MTEXT
  5
219
330
90
100
AcDbEntity
  8
STANDARD
  6
AUSGEZOGEN
 62
     7
440
 33554687
370
    25
100
AcDbMText
 10
0.111887939453125
 20
0.078599365234375
 30
0.0
 40
0.002
 41
0.0491270435057875
 71
     7
 72
     5
  1
\W0.99;Loch für Entwässerung mind. %%c 50 mm
  7
ARIAL
 73
     1
 44
1.0
  0
MTEXT
  5
21A
330
90
100
AcDbEntity
  8
STANDARD
  6
AUSGEZOGEN
 62
     7
440
 33554687
370
    25
100
AcDbMText
 10
0.111887939453125
 20
0.075599365234375
 30
0.0
 40
0.002
 41
0.033437523479266
 71
     7
 72
     5
  1
\W1.00;(Auffüllung mit Sickerkies)
  7
ARIAL
 73
     1
 44
1.0
  0
ENDBLK
  5
92
330
90
100
AcDbEntity
  8
0
100
AcDbBlockEnd
  0
BLOCK
  5
21C
330
21B
100
AcDbEntity
  8
0
100
AcDbBlockBegin
  2
TB_7000
 70
     0
 10
0.0
 20
0.0
 30
0.0
  3
TB_7000
  1

  0
MTEXT
  5
21E
330
21B
100
AcDbEntity
  8
STANDARD
  6
AUSGEZOGEN
 62
     1
440
 33554687
370
    13
100
AcDbMText
 10
0.034879638671875
 20
0.16685498046875
 30
0.0
 40
0.012
 41
0.1416202450719233
 71
     7
 72
     5
  1
\W1.00;Die PDF- Version:
  7
ARIAL
 73
     1
 44
1.0
  0
MTEXT
  5
21F
330
21B
100
AcDbEntity
  8
STANDARD
  6
AUSGEZOGEN
 62
     1
440
 33554687
370
    13
100
AcDbMText
 10
0.0441795654296875
 20
0.14285498046875
 30
0.0
 40
0.012
 41
0.1228365758754864
 71
     7
 72
     5
  1
\W0.97;1.0: 01.12.2015
  7
ARIAL
 73
     1
 44
1.0
  0
MTEXT
  5
220
330
21B
100
AcDbEntity
  8
STANDARD
  6
AUSGEZOGEN
 62
     1
440
 33554687
370
    13
100
AcDbMText
 10
0.0535796508789063
 20
0.11885498046875
 30
0.0
 40
0.012
 41
0.1042164195564269
 71
     7
 72
     5
  1
\W1.00;hat Gültigkeit
  7
ARIAL
 73
     1
 44
1.0
  0
ENDBLK
  5
21D
330
21B
100
AcDbEntity
  8
0
100
AcDbBlockEnd
  0
ENDSEC
  0
SECTION
  2
ENTITIES
  0
INSERT
  5
221
330
1F
100
AcDbEntity
  8
STANDARD
  6
AUSGEZOGEN
 62
     7
440
 33554687
370
    25
100
AcDbBlockReference
  2
TB_2977
 10
0.0
 20
0.0
 30
0.0
  0
INSERT
  5
222
330
1F
100
AcDbEntity
  8
STANDARD
  6
AUSGEZOGEN
 62
     7
440
 33554687
370
    25
100
AcDbBlockReference
  2
TB_2951
 10
0.0
 20
0.0
 30
0.0
  0
INSERT
  5
223
330
1F
100
AcDbEntity
  8
STANDARD
  6
AUSGEZOGEN
 62
     7
440
 33554687
370
    25
100
AcDbBlockReference
  2
TB_3004
 10
0.0
 20
0.0000000000000002
 30
0.0
  0
INSERT
  5
224
330
1F
100
AcDbEntity
  8
STANDARD
  6
AUSGEZOGEN
 62
     7
440
 33554687
370
    13
100
AcDbBlockReference
  2
TB_7000
 10
0.0
 20
0.0
 30
0.0
  0
ENDSEC
  0
SECTION
  2
OBJECTS
  0
DICTIONARY
  5
C
330
0
100
AcDbDictionary
281
     1
  3
ACAD_DETAILVIEWSTYLE
350
26A
  3
ACAD_GROUP
350
D
  3
ACAD_LAYOUT
350
1A
  3
ACAD_MATERIAL
350
43
  3
ACAD_MLEADERSTYLE
350
6B
  3
ACAD_MLINESTYLE
350
17
  3
ACAD_PLOTSETTINGS
350
19
  3
ACAD_PLOTSTYLENAME
350
E
  3
ACAD_SCALELIST
350
47
  3
ACAD_SECTIONVIEWSTYLE
350
26B
  3
ACAD_TABLESTYLE
350
69
  3
ACAD_VISUALSTYLE
350
2A
  3
ACDB_RECOMPOSE_DATA
350
267
  3
AcDbVariableDictionary
350
227
  0
DICTIONARY
  5
225
330
8
100
AcDbDictionary
280
     1
281
     1
  3
ACAD_XREC_ROUNDTRIP
360
226
  0
DICTIONARY
  5
26A
102
{ACAD_REACTORS
330
C
102
}
330
C
100
AcDbDictionary
281
     1
  0
DICTIONARY
  5
D
102
{ACAD_REACTORS
330
C
102
}
330
C
100
AcDbDictionary
281
     1
  0
DICTIONARY
  5
1A
102
{ACAD_REACTORS
330
C
102
}
330
C
100
AcDbDictionary
281
     1
  3
Layout1
350
1E
  3
Layout2
350
26
  3
Model
350
22
  0
DICTIONARY
  5
43
102
{ACAD_REACTORS
330
C
102
}
330
C
100
AcDbDictionary
281
     1
  3
ByBlock
350
45
  3
ByLayer
350
44
  3
Global
350
46
  0
DICTIONARY
  5
6B
102
{ACAD_REACTORS
330
C
102
}
330
C
100
AcDbDictionary
281
     1
  3
Standard
350
6C
  0
DICTIONARY
  5
17
102
{ACAD_REACTORS
330
C
102
}
330
C
100
AcDbDictionary
281
     1
  3
Standard
350
18
  0
DICTIONARY
  5
19
102
{ACAD_REACTORS
330
C
102
}
330
C
100
AcDbDictionary
281
     1
  0
ACDBDICTIONARYWDFLT
  5
E
102
{ACAD_REACTORS
330
C
102
}
330
C
100
AcDbDictionary
281
     1
  3
Normal
350
F
100
AcDbDictionaryWithDefault
340
F
  0
DICTIONARY
  5
47
102
{ACAD_REACTORS
330
C
102
}
330
C
100
AcDbDictionary
281
     1
  3
A0
350
48
  3
A1
350
49
  3
A2
350
4A
  3
A3
350
4B
  3
A4
350
4C
  3
A5
350
4D
  3
A6
350
4E
  3
A7
350
4F
  3
A8
350
50
  3
A9
350
51
  3
B0
350
52
  3
B1
350
53
  3
B2
350
54
  3
B3
350
55
  3
B4
350
56
  3
B5
350
57
  3
B6
350
58
  3
B7
350
59
  3
B8
350
5A
  3
B9
350
5B
  3
C0
350
5C
  3
C1
350
5D
  3
C2
350
5E
  3
C3
350
5F
  3
C4
350
60
  3
C5
350
61
  3
C6
350
62
  3
C7
350
63
  3
C8
350
64
  3
C9
350
65
  3
D0
350
66
  3
D1
350
67
  3
D2
350
68
  0
DICTIONARY
  5
26B
102
{ACAD_REACTORS
330
C
102
}
330
C
100
AcDbDictionary
281
     1
  0
DICTIONARY
  5
69
102
{ACAD_REACTORS
330
C
102
}
330
C
100
AcDbDictionary
281
     1
  3
Standard
350
6A
  0
DICTIONARY
  5
2A
102
{ACAD_REACTORS
330
C
102
}
330
C
100
AcDbDictionary
281
     1
  3
2dWireframe
350
2F
  3
Basic
350
32
  3
Brighten
350
36
  3
ColorChange
350
3A
  3
Conceptual
350
34
  3
Dim
350
35
  3
EdgeColorOff
350
3D
  3
Facepattern
350
39
  3
Flat
350
2B
  3
FlatWithEdges
350
2C
  3
Gouraud
350
2D
  3
GouraudWithEdges
350
2E
  3
Hidden
350
31
  3
JitterOff
350
3B
  3
Linepattern
350
38
  3
OverhangOff
350
3C
  3
Realistic
350
33
  3
Shaded
350
42
  3
Shaded with edges
350
41
  3
Shades of Gray
350
3E
  3
Sketchy
350
3F
  3
Thicken
350
37
  3
Wireframe
350
30
  3
X-Ray
350
40
  0
XRECORD
  5
267
102
{ACAD_REACTORS
330
C
102
}
330
C
100
AcDbXrecord
280
     1
 90
        1
330
6A
  0
DICTIONARY
  5
227
102
{ACAD_REACTORS
330
C
102
}
330
C
100
AcDbDictionary
281
     1
  3
CANNOSCALE
350
228
  3
CMLEADERSTYLE
350
269
  3
CTABLESTYLE
350
268
  3
MSLTSCALE
350
229
  3
XCLIPFRAME
350
22A
  0
XRECORD
  5
226
102
{ACAD_REACTORS
330
225
102
}
330
225
100
AcDbXrecord
280
     1
102
VTR_0.000_0.000_1.000_1.000_VISUALSTYLE
340
2F
102
VTR_0.000_0.000_1.000_1.000_GRIDDISPLAY
 70
     3
102
VTR_0.000_0.000_1.000_1.000_GRIDMAJOR
 70
     5
102
VTR_0.000_0.000_1.000_1.000_DEFAULTLIGHTING
280
     1
102
VTR_0.000_0.000_1.000_1.000_DEFAULTLIGHTINGTYPE
 70
     1
102
VTR_0.000_0.000_1.000_1.000_BRIGHTNESS
141
0.0
102
VTR_0.000_0.000_1.000_1.000_CONTRAST
142
0.0
  0
LAYOUT
  5
1E
102
{ACAD_REACTORS
330
1A
102
}
330
1A
100
AcDbPlotSettings
  1

  2
none_device
  4
none_user_media
  6

 40
5.100000000000023
 41
5.0
 42
5.1
 43
5.100000000000023
 44
297.0
 45
210.0
 46
0.0
 47
0.0
 48
0.0
 49
0.0
140
0.0
141
0.0
142
1000.0
143
1.0
 70
   688
 72
     1
 73
     0
 74
     5
  7

 75
    33
 76
     0
 77
     2
 78
   300
147
1000.0
148
0.0
149
0.0
100
AcDbLayout
  1
Layout1
 70
     1
 71
     1
 10
0.0
 20
0.0
 11
12.0
 21
9.0
 12
0.0
 22
0.0
 32
0.0
 14
1.000000000000000E+20
 24
1.000000000000000E+20
 34
1.000000000000000E+20
 15
-1.000000000000000E+20
 25
-1.000000000000000E+20
 35
-1.000000000000000E+20
146
0.0
 13
0.0
 23
0.0
 33
0.0
 16
1.0
 26
0.0
 36
0.0
 17
0.0
 27
1.0
 37
0.0
 76
     0
330
1B
  0
LAYOUT
  5
26
102
{ACAD_REACTORS
330
1A
102
}
330
1A
100
AcDbPlotSettings
  1

  2
none_device
  4

  6

 40
0.0
 41
0.0
 42
0.0
 43
0.0
 44
0.0
 45
0.0
 46
0.0
 47
0.0
 48
0.0
 49
0.0
140
0.0
141
0.0
142
1.0
143
1.0
 70
   688
 72
     0
 73
     0
 74
     5
  7

 75
    16
 76
     0
 77
     2
 78
   300
147
1.0
148
0.0
149
0.0
100
AcDbLayout
  1
Layout2
 70
     1
 71
     2
 10
0.0
 20
0.0
 11
0.0
 21
0.0
 12
0.0
 22
0.0
 32
0.0
 14
0.0
 24
0.0
 34
0.0
 15
0.0
 25
0.0
 35
0.0
146
0.0
 13
0.0
 23
0.0
 33
0.0
 16
1.0
 26
0.0
 36
0.0
 17
0.0
 27
1.0
 37
0.0
 76
     0
330
23
  0
LAYOUT
  5
22
102
{ACAD_REACTORS
330
1A
102
}
330
1A
100
AcDbPlotSettings
  1

  2
none_device
  4
Letter_(8.50_x_11.00_Inches)
  6

 40
6.35
 41
6.35
 42
6.35000508
 43
6.35000508
 44
215.9
 45
279.4
 46
0.0
 47
0.0
 48
0.0
 49
0.0
140
0.0
141
0.0
142
1.0
143
1.0
 70
  1712
 72
     0
 73
     0
 74
     0
  7

 75
     0
 76
     0
 77
     2
 78
   300
147
1.0
148
0.0
149
0.0
100
AcDbLayout
  1
Model
 70
     1
 71
     0
 10
0.0
 20
0.0
 11
12.0
 21
9.0
 12
0.0
 22
0.0
 32
0.0
 14
1.000000000000000E+20
 24
1.000000000000000E+20
 34
1.000000000000000E+20
 15
-1.000000000000000E+20
 25
-1.000000000000000E+20
 35
-1.000000000000000E+20
146
0.0
 13
0.0
 23
0.0
 33
0.0
 16
1.0
 26
0.0
 36
0.0
 17
0.0
 27
1.0
 37
0.0
 76
     0
330
1F
331
29
  0
MATERIAL
  5
45
102
{ACAD_REACTORS
330
43
102
}
102
{ACAD_XDICTIONARY
360
25D
102
}
330
43
100
AcDbMaterial
  1
ByBlock
  0
MATERIAL
  5
44
102
{ACAD_REACTORS
330
43
102
}
102
{ACAD_XDICTIONARY
360
25B
102
}
330
43
100
AcDbMaterial
  1
ByLayer
  0
MATERIAL
  5
46
102
{ACAD_REACTORS
330
43
102
}
102
{ACAD_XDICTIONARY
360
25F
102
}
330
43
100
AcDbMaterial
  1
Global
  0
MLEADERSTYLE
  5
6C
102
{ACAD_REACTORS
330
6B
102
}
102
{ACAD_XDICTIONARY
360
265
102
}
330
6B
100
AcDbMLeaderStyle
170
     2
171
     1
172
     0
 90
        2
 40
0.0
 41
0.0
173
     1
 91
-1056964608
340
14
 92
       -2
290
     1
 42
0.09
291
     1
 43
0.36
  3
Standard
341
0
 44
0.18
300

342
11
174
     1
178
     6
175
     1
176
     0
 93
-1056964608
 45
0.18
292
     0
297
     0
 46
0.18
343
0
 94
-1056964608
 47
1.0
 49
1.0
140
1.0
293
     1
141
0.0
294
     1
177
     0
142
1.0
295
     0
296
     0
143
0.125
1001
ACAD_MLEADERVER
1070
     2
  0
MLINESTYLE
  5
18
102
{ACAD_REACTORS
330
17
102
}
330
17
100
AcDbMlineStyle
  2
Standard
 70
     0
  3

 62
   256
 51
90.0
 52
90.0
 71
     2
 49
0.5
 62
   256
  6
BYLAYER
 49
-0.5
 62
   256
  6
BYLAYER
  0
ACDBPLACEHOLDER
  5
F
102
{ACAD_REACTORS
330
E
102
}
330
E
  0
SCALE
  5
48
102
{ACAD_REACTORS
330
47
102
}
330
47
100
AcDbScale
 70
     0
300
1:1
140
1.0
141
1.0
290
     1
  0
SCALE
  5
49
102
{ACAD_REACTORS
330
47
102
}
330
47
100
AcDbScale
 70
     0
300
1:2
140
1.0
141
2.0
290
     0
  0
SCALE
  5
4A
102
{ACAD_REACTORS
330
47
102
}
330
47
100
AcDbScale
 70
     0
300
1:4
140
1.0
141
4.0
290
     0
  0
SCALE
  5
4B
102
{ACAD_REACTORS
330
47
102
}
330
47
100
AcDbScale
 70
     0
300
1:5
140
1.0
141
5.0
290
     0
  0
SCALE
  5
4C
102
{ACAD_REACTORS
330
47
102
}
330
47
100
AcDbScale
 70
     0
300
1:8
140
1.0
141
8.0
290
     0
  0
SCALE
  5
4D
102
{ACAD_REACTORS
330
47
102
}
330
47
100
AcDbScale
 70
     0
300
1:10
140
1.0
141
10.0
290
     0
  0
SCALE
  5
4E
102
{ACAD_REACTORS
330
47
102
}
330
47
100
AcDbScale
 70
     0
300
1:16
140
1.0
141
16.0
290
     0
  0
SCALE
  5
4F
102
{ACAD_REACTORS
330
47
102
}
330
47
100
AcDbScale
 70
     0
300
1:20
140
1.0
141
20.0
290
     0
  0
SCALE
  5
50
102
{ACAD_REACTORS
330
47
102
}
330
47
100
AcDbScale
 70
     0
300
1:30
140
1.0
141
30.0
290
     0
  0
SCALE
  5
51
102
{ACAD_REACTORS
330
47
102
}
330
47
100
AcDbScale
 70
     0
300
1:40
140
1.0
141
40.0
290
     0
  0
SCALE
  5
52
102
{ACAD_REACTORS
330
47
102
}
330
47
100
AcDbScale
 70
     0
300
1:50
140
1.0
141
50.0
290
     0
  0
SCALE
  5
53
102
{ACAD_REACTORS
330
47
102
}
330
47
100
AcDbScale
 70
     0
300
1:100
140
1.0
141
100.0
290
     0
  0
SCALE
  5
54
102
{ACAD_REACTORS
330
47
102
}
330
47
100
AcDbScale
 70
     0
300
2:1
140
2.0
141
1.0
290
     0
  0
SCALE
  5
55
102
{ACAD_REACTORS
330
47
102
}
330
47
100
AcDbScale
 70
     0
300
4:1
140
4.0
141
1.0
290
     0
  0
SCALE
  5
56
102
{ACAD_REACTORS
330
47
102
}
330
47
100
AcDbScale
 70
     0
300
8:1
140
8.0
141
1.0
290
     0
  0
SCALE
  5
57
102
{ACAD_REACTORS
330
47
102
}
330
47
100
AcDbScale
 70
     0
300
10:1
140
10.0
141
1.0
290
     0
  0
SCALE
  5
58
102
{ACAD_REACTORS
330
47
102
}
330
47
100
AcDbScale
 70
     0
300
100:1
140
100.0
141
1.0
290
     0
  0
SCALE
  5
59
102
{ACAD_REACTORS
330
47
102
}
330
47
100
AcDbScale
 70
     0
300
1/128" = 1'-0"
140
0.0078125
141
12.0
290
     0
  0
SCALE
  5
5A
102
{ACAD_REACTORS
330
47
102
}
330
47
100
AcDbScale
 70
     0
300
1/64" = 1'-0"
140
0.015625
141
12.0
290
     0
  0
SCALE
  5
5B
102
{ACAD_REACTORS
330
47
102
}
330
47
100
AcDbScale
 70
     0
300
1/32" = 1'-0"
140
0.03125
141
12.0
290
     0
  0
SCALE
  5
5C
102
{ACAD_REACTORS
330
47
102
}
330
47
100
AcDbScale
 70
     0
300
1/16" = 1'-0"
140
0.0625
141
12.0
290
     0
  0
SCALE
  5
5D
102
{ACAD_REACTORS
330
47
102
}
330
47
100
AcDbScale
 70
     0
300
3/32" = 1'-0"
140
0.09375
141
12.0
290
     0
  0
SCALE
  5
5E
102
{ACAD_REACTORS
330
47
102
}
330
47
100
AcDbScale
 70
     0
300
1/8" = 1'-0"
140
0.125
141
12.0
290
     0
  0
SCALE
  5
5F
102
{ACAD_REACTORS
330
47
102
}
330
47
100
AcDbScale
 70
     0
300
3/16" = 1'-0"
140
0.1875
141
12.0
290
     0
  0
SCALE
  5
60
102
{ACAD_REACTORS
330
47
102
}
330
47
100
AcDbScale
 70
     0
300
1/4" = 1'-0"
140
0.25
141
12.0
290
     0
  0
SCALE
  5
61
102
{ACAD_REACTORS
330
47
102
}
330
47
100
AcDbScale
 70
     0
300
3/8" = 1'-0"
140
0.375
141
12.0
290
     0
  0
SCALE
  5
62
102
{ACAD_REACTORS
330
47
102
}
330
47
100
AcDbScale
 70
     0
300
1/2" = 1'-0"
140
0.5
141
12.0
290
     0
  0
SCALE
  5
63
102
{ACAD_REACTORS
330
47
102
}
330
47
100
AcDbScale
 70
     0
300
3/4" = 1'-0"
140
0.75
141
12.0
290
     0
  0
SCALE
  5
64
102
{ACAD_REACTORS
330
47
102
}
330
47
100
AcDbScale
 70
     0
300
1" = 1'-0"
140
1.0
141
12.0
290
     0
  0
SCALE
  5
65
102
{ACAD_REACTORS
330
47
102
}
330
47
100
AcDbScale
 70
     0
300
1-1/2" = 1'-0"
140
1.5
141
12.0
290
     0
  0
SCALE
  5
66
102
{ACAD_REACTORS
330
47
102
}
330
47
100
AcDbScale
 70
     0
300
3" = 1'-0"
140
3.0
141
12.0
290
     0
  0
SCALE
  5
67
102
{ACAD_REACTORS
330
47
102
}
330
47
100
AcDbScale
 70
     0
300
6" = 1'-0"
140
6.0
141
12.0
290
     0
  0
SCALE
  5
68
102
{ACAD_REACTORS
330
47
102
}
330
47
100
AcDbScale
 70
     0
300
1'-0" = 1'-0"
140
12.0
141
12.0
290
     0
  0
TABLESTYLE
  5
6A
102
{ACAD_REACTORS
330
69
102
}
102
{ACAD_XDICTIONARY
360
261
102
}
330
69
100
AcDbTableStyle
  3
Standard
 70
     0
 71
     0
 40
0.06
 41
0.06
280
     0
281
     0
  7
Standard
140
0.18
170
     2
 62
     0
 63
   257
283
     0
274
    -2
284
     1
 64
     0
275
    -2
285
     1
 65
     0
276
    -2
286
     1
 66
     0
277
    -2
287
     1
 67
     0
278
    -2
288
     1
 68
     0
279
    -2
289
     1
 69
     0
  7
Standard
140
0.25
170
     5
 62
     0
 63
   257
283
     0
274
    -2
284
     1
 64
     0
275
    -2
285
     1
 65
     0
276
    -2
286
     1
 66
     0
277
    -2
287
     1
 67
     0
278
    -2
288
     1
 68
     0
279
    -2
289
     1
 69
     0
  7
Standard
140
0.18
170
     5
 62
     0
 63
   257
283
     0
274
    -2
284
     1
 64
     0
275
    -2
285
     1
 65
     0
276
    -2
286
     1
 66
     0
277
    -2
287
     1
 67
     0
278
    -2
288
     1
 68
     0
279
    -2
289
     1
 69
     0
  0
VISUALSTYLE
  5
2F
102
{ACAD_REACTORS
330
2A
102
}
102
{ACAD_XDICTIONARY
360
233
102
}
330
2A
100
AcDbVisualStyle
  2
2dWireframe
 70
     4
 71
     0
 72
     2
 73
     0
 90
        0
 40
0.6
 41
30.0
 62
     5
 63
     7
421
 16777215
 74
     1
 91
        4
 64
     7
 65
   257
 75
     1
175
     1
 42
1.0
 92
        0
 66
   257
 43
1.0
 76
     1
 77
     6
 78
     2
 67
     7
 79
     5
170
     0
171
     0
290
     0
174
     0
 93
        1
 44
0.0
173
     0
291
     0
 45
0.0
1001
ACAD
1000
AcDbSavedByObjectVersion
1070
     0
  0
VISUALSTYLE
  5
32
102
{ACAD_REACTORS
330
2A
102
}
102
{ACAD_XDICTIONARY
360
239
102
}
330
2A
100
AcDbVisualStyle
  2
Basic
 70
     7
 71
     1
 72
     0
 73
     1
 90
        0
 40
0.6
 41
30.0
 62
     5
 63
     7
421
 16777215
 74
     0
 91
        4
 64
     7
 65
   257
 75
     1
175
     1
 42
1.0
 92
        8
 66
     7
 43
1.0
 76
     1
 77
     6
 78
     2
 67
     7
 79
     5
170
     0
171
     0
290
     0
174
     0
 93
        1
 44
0.0
173
     0
291
     1
 45
0.0
1001
ACAD
1000
AcDbSavedByObjectVersion
1070
     0
  0
VISUALSTYLE
  5
36
102
{ACAD_REACTORS
330
2A
102
}
102
{ACAD_XDICTIONARY
360
241
102
}
330
2A
100
AcDbVisualStyle
  2
Brighten
 70
    12
 71
     2
 72
     2
 73
     0
 90
        0
 40
0.6
 41
30.0
 62
     5
 63
     7
421
 16777215
 74
     1
 91
        4
 64
     7
 65
   257
 75
     1
175
     1
 42
1.0
 92
        8
 66
     7
 43
1.0
 76
     1
 77
     6
 78
     2
 67
     7
 79
     5
170
     0
171
     0
290
     0
174
     0
 93
        1
 44
50.0
173
     0
291
     1
 45
0.0
1001
ACAD
1000
AcDbSavedByObjectVersion
1070
     0
  0
VISUALSTYLE
  5
3A
102
{ACAD_REACTORS
330
2A
102
}
102
{ACAD_XDICTIONARY
360
249
102
}
330
2A
100
AcDbVisualStyle
  2
ColorChange
 70
    16
 71
     2
 72
     2
 73
     3
 90
        0
 40
0.6
 41
30.0
 62
     5
 63
     8
421
  8421504
 74
     1
 91
        4
 64
     7
 65
   257
 75
     1
175
     1
 42
1.0
 92
        8
 66
     8
424
  8421504
 43
1.0
 76
     1
 77
     6
 78
     2
 67
     7
 79
     5
170
     0
171
     0
290
     0
174
     0
 93
        1
 44
0.0
173
     0
291
     1
 45
0.0
1001
ACAD
1000
AcDbSavedByObjectVersion
1070
     0
  0
VISUALSTYLE
  5
34
102
{ACAD_REACTORS
330
2A
102
}
102
{ACAD_XDICTIONARY
360
23D
102
}
330
2A
100
AcDbVisualStyle
  2
Conceptual
 70
     9
 71
     3
 72
     2
 73
     0
 90
        0
 40
0.6
 41
30.0
 62
     5
 63
     7
421
 16777215
 74
     2
 91
        2
 64
     7
 65
   257
 75
     1
175
     1
 42
179.0
 92
        8
 66
     7
 43
1.0
 76
     1
 77
     6
 78
     2
 67
     7
 79
     3
170
     0
171
     0
290
     0
174
     0
 93
        1
 44
0.0
173
     0
291
     0
 45
0.0
1001
ACAD
1000
AcDbSavedByObjectVersion
1070
     0
  0
VISUALSTYLE
  5
35
102
{ACAD_REACTORS
330
2A
102
}
102
{ACAD_XDICTIONARY
360
23F
102
}
330
2A
100
AcDbVisualStyle
  2
Dim
 70
    11
 71
     2
 72
     2
 73
     0
 90
        0
 40
0.6
 41
30.0
 62
     5
 63
     7
421
 16777215
 74
     1
 91
        4
 64
     7
 65
   257
 75
     1
175
     1
 42
1.0
 92
        8
 66
     7
 43
1.0
 76
     1
 77
     6
 78
     2
 67
     7
 79
     5
170
     0
171
     0
290
     0
174
     0
 93
        1
 44
-50.0
173
     0
291
     1
 45
0.0
1001
ACAD
1000
AcDbSavedByObjectVersion
1070
     0
  0
VISUALSTYLE
  5
3D
102
{ACAD_REACTORS
330
2A
102
}
102
{ACAD_XDICTIONARY
360
24F
102
}
330
2A
100
AcDbVisualStyle
  2
EdgeColorOff
 70
    22
 71
     2
 72
     2
 73
     0
 90
        0
 40
0.6
 41
30.0
 62
     5
 63
     7
421
 16777215
 74
     1
 91
        4
 64
     7
 65
   257
 75
     1
175
     1
 42
1.0
 92
        8
 66
     7
 43
1.0
 76
     1
 77
     6
 78
     2
 67
     7
 79
     5
170
     0
171
     0
290
     0
174
     0
 93
        1
 44
0.0
173
     0
291
     1
 45
0.0
1001
ACAD
1000
AcDbSavedByObjectVersion
1070
     0
  0
VISUALSTYLE
  5
39
102
{ACAD_REACTORS
330
2A
102
}
102
{ACAD_XDICTIONARY
360
247
102
}
330
2A
100
AcDbVisualStyle
  2
Facepattern
 70
    15
 71
     2
 72
     2
 73
     0
 90
        0
 40
0.6
 41
30.0
 62
     5
 63
     7
421
 16777215
 74
     1
 91
        4
 64
     7
 65
   257
 75
     1
175
     1
 42
1.0
 92
        8
 66
     7
 43
1.0
 76
     1
 77
     6
 78
     2
 67
     7
 79
     5
170
     0
171
     0
290
     0
174
     0
 93
        1
 44
0.0
173
     0
291
     1
 45
0.0
1001
ACAD
1000
AcDbSavedByObjectVersion
1070
     0
  0
VISUALSTYLE
  5
2B
102
{ACAD_REACTORS
330
2A
102
}
102
{ACAD_XDICTIONARY
360
22B
102
}
330
2A
100
AcDbVisualStyle
  2
Flat
 70
     0
 71
     2
 72
     1
 73
     1
 90
        2
 40
0.6
 41
30.0
 62
     5
 63
     7
421
 16777215
 74
     0
 91
        0
 64
     7
 65
   257
 75
     1
175
     1
 42
1.0
 92
        8
 66
     7
 43
1.0
 76
     1
 77
     6
 78
     2
 67
     7
 79
     5
170
     0
171
     0
290
     0
174
     0
 93
       13
 44
0.0
173
     0
291
     1
 45
0.0
1001
ACAD
1000
AcDbSavedByObjectVersion
1070
     0
  0
VISUALSTYLE
  5
2C
102
{ACAD_REACTORS
330
2A
102
}
102
{ACAD_XDICTIONARY
360
22D
102
}
330
2A
100
AcDbVisualStyle
  2
FlatWithEdges
 70
     1
 71
     2
 72
     1
 73
     1
 90
        2
 40
0.6
 41
30.0
 62
     5
 63
     7
421
 16777215
 74
     1
 91
        0
 64
     7
 65
   257
 75
     1
175
     1
 42
1.0
 92
        0
 66
   257
 43
1.0
 76
     1
 77
     6
 78
     2
 67
     7
 79
     5
170
     0
171
     0
290
     0
174
     0
 93
       13
 44
0.0
173
     0
291
     1
 45
0.0
1001
ACAD
1000
AcDbSavedByObjectVersion
1070
     0
  0
VISUALSTYLE
  5
2D
102
{ACAD_REACTORS
330
2A
102
}
102
{ACAD_XDICTIONARY
360
22F
102
}
330
2A
100
AcDbVisualStyle
  2
Gouraud
 70
     2
 71
     2
 72
     2
 73
     1
 90
        2
 40
0.6
 41
30.0
 62
     5
 63
     7
421
 16777215
 74
     0
 91
        0
 64
     7
 65
   257
 75
     1
175
     1
 42
1.0
 92
        0
 66
     7
 43
1.0
 76
     1
 77
     6
 78
     2
 67
     7
 79
     5
170
     0
171
     0
290
     0
174
     0
 93
       13
 44
0.0
173
     0
291
     1
 45
0.0
1001
ACAD
1000
AcDbSavedByObjectVersion
1070
     0
  0
VISUALSTYLE
  5
2E
102
{ACAD_REACTORS
330
2A
102
}
102
{ACAD_XDICTIONARY
360
231
102
}
330
2A
100
AcDbVisualStyle
  2
GouraudWithEdges
 70
     3
 71
     2
 72
     2
 73
     1
 90
        2
 40
0.6
 41
30.0
 62
     5
 63
     7
421
 16777215
 74
     1
 91
        0
 64
     7
 65
   257
 75
     1
175
     1
 42
1.0
 92
        0
 66
   257
 43
1.0
 76
     1
 77
     6
 78
     2
 67
     7
 79
     5
170
     0
171
     0
290
     0
174
     0
 93
       13
 44
0.0
173
     0
291
     1
 45
0.0
1001
ACAD
1000
AcDbSavedByObjectVersion
1070
     0
  0
VISUALSTYLE
  5
31
102
{ACAD_REACTORS
330
2A
102
}
102
{ACAD_XDICTIONARY
360
237
102
}
330
2A
100
AcDbVisualStyle
  2
Hidden
 70
     6
 71
     1
 72
     2
 73
     2
 90
        0
 40
0.6
 41
30.0
 62
     5
 63
     7
421
 16777215
 74
     2
 91
        2
 64
     7
 65
   257
 75
     2
175
     1
 42
40.0
 92
        0
 66
   257
 43
1.0
 76
     1
 77
     6
 78
     2
 67
     7
 79
     3
170
     0
171
     0
290
     0
174
     0
 93
        1
 44
0.0
173
     0
291
     0
 45
0.0
1001
ACAD
1000
AcDbSavedByObjectVersion
1070
     0
  0
VISUALSTYLE
  5
3B
102
{ACAD_REACTORS
330
2A
102
}
102
{ACAD_XDICTIONARY
360
24B
102
}
330
2A
100
AcDbVisualStyle
  2
JitterOff
 70
    20
 71
     2
 72
     2
 73
     0
 90
        0
 40
0.6
 41
30.0
 62
     5
 63
     7
421
 16777215
 74
     1
 91
        4
 64
     7
 65
   257
 75
     1
175
     1
 42
1.0
 92
       10
 66
     7
 43
1.0
 76
     1
 77
     6
 78
     2
 67
     7
 79
     5
170
     0
171
     0
290
     0
174
     0
 93
        1
 44
0.0
173
     0
291
     1
 45
0.0
1001
ACAD
1000
AcDbSavedByObjectVersion
1070
     0
  0
VISUALSTYLE
  5
38
102
{ACAD_REACTORS
330
2A
102
}
102
{ACAD_XDICTIONARY
360
245
102
}
330
2A
100
AcDbVisualStyle
  2
Linepattern
 70
    14
 71
     2
 72
     2
 73
     0
 90
        0
 40
0.6
 41
30.0
 62
     5
 63
     7
421
 16777215
 74
     1
 91
        4
 64
     7
 65
   257
 75
     7
175
     7
 42
1.0
 92
        8
 66
     7
 43
1.0
 76
     1
 77
     6
 78
     2
 67
     7
 79
     5
170
     0
171
     0
290
     0
174
     0
 93
        1
 44
0.0
173
     0
291
     1
 45
0.0
1001
ACAD
1000
AcDbSavedByObjectVersion
1070
     0
  0
VISUALSTYLE
  5
3C
102
{ACAD_REACTORS
330
2A
102
}
102
{ACAD_XDICTIONARY
360
24D
102
}
330
2A
100
AcDbVisualStyle
  2
OverhangOff
 70
    21
 71
     2
 72
     2
 73
     0
 90
        0
 40
0.6
 41
30.0
 62
     5
 63
     7
421
 16777215
 74
     1
 91
        4
 64
     7
 65
   257
 75
     1
175
     1
 42
1.0
 92
        9
 66
     7
 43
1.0
 76
     1
 77
     6
 78
     2
 67
     7
 79
     5
170
     0
171
     0
290
     0
174
     0
 93
        1
 44
0.0
173
     0
291
     1
 45
0.0
1001
ACAD
1000
AcDbSavedByObjectVersion
1070
     0
  0
VISUALSTYLE
  5
33
102
{ACAD_REACTORS
330
2A
102
}
102
{ACAD_XDICTIONARY
360
23B
102
}
330
2A
100
AcDbVisualStyle
  2
Realistic
 70
     8
 71
     2
 72
     3
 73
     0
 90
        2
 40
0.6
 41
30.0
 62
     5
 63
     7
421
 16777215
 74
     0
 91
        0
 64
     7
 65
   257
 75
     1
175
     1
 42
1.0
 92
        8
 66
   257
 43
1.0
 76
     1
 77
     6
 78
     2
 67
     7
 79
     3
170
     0
171
     0
290
     0
174
     0
 93
       13
 44
0.0
173
     0
291
     0
 45
0.0
1001
ACAD
1000
AcDbSavedByObjectVersion
1070
     0
  0
VISUALSTYLE
  5
42
102
{ACAD_REACTORS
330
2A
102
}
102
{ACAD_XDICTIONARY
360
259
102
}
330
2A
100
AcDbVisualStyle
  2
Shaded
 70
    27
 71
     2
 72
     2
 73
     1
 90
        2
 40
0.6
 41
30.0
 62
     5
 63
     7
421
 16777215
 74
     0
 91
        4
 64
     7
 65
   257
 75
     1
175
     1
 42
1.0
 92
        8
 66
   257
 43
1.0
 76
     1
 77
     6
 78
     2
 67
     8
425
  7895160
 79
     3
170
     0
171
     0
290
     0
174
     0
 93
        5
 44
0.0
173
     0
291
     0
 45
0.0
1001
ACAD
1000
AcDbSavedByObjectVersion
1070
     0
  0
VISUALSTYLE
  5
41
102
{ACAD_REACTORS
330
2A
102
}
102
{ACAD_XDICTIONARY
360
257
102
}
330
2A
100
AcDbVisualStyle
  2
Shaded with edges
 70
    26
 71
     2
 72
     2
 73
     1
 90
        2
 40
0.6
 41
30.0
 62
     5
 63
     7
421
 16777215
 74
     1
 91
       10
 64
     7
 65
   257
 75
     2
175
     1
 42
1.0
 92
        8
 66
   257
 43
1.0
 76
     1
 77
     6
 78
     2
 67
     7
 79
     3
170
     0
171
     0
290
     0
174
     0
 93
        5
 44
0.0
173
     0
291
     0
 45
0.0
1001
ACAD
1000
AcDbSavedByObjectVersion
1070
     0
  0
VISUALSTYLE
  5
3E
102
{ACAD_REACTORS
330
2A
102
}
102
{ACAD_XDICTIONARY
360
251
102
}
330
2A
100
AcDbVisualStyle
  2
Shades of Gray
 70
    23
 71
     2
 72
     2
 73
     3
 90
        0
 40
0.6
 41
30.0
 62
     5
 63
     7
421
 16777215
 74
     2
 91
        2
 64
     7
 65
     7
 75
     1
175
     1
 42
40.0
 92
        8
 66
     7
 43
1.0
 76
     1
 77
     6
 78
     2
 67
     7
 79
     3
170
     0
171
     0
290
     0
174
     0
 93
        1
 44
0.0
173
     0
291
     0
 45
0.0
1001
ACAD
1000
AcDbSavedByObjectVersion
1070
     0
  0
VISUALSTYLE
  5
3F
102
{ACAD_REACTORS
330
2A
102
}
102
{ACAD_XDICTIONARY
360
253
102
}
330
2A
100
AcDbVisualStyle
  2
Sketchy
 70
    24
 71
     1
 72
     2
 73
     2
 90
        0
 40
0.6
 41
30.0
 62
     5
 63
     7
421
 16777215
 74
     2
 91
        2
 64
     7
 65
     7
 75
     1
175
     1
 42
40.0
 92
       11
 66
     7
 43
1.0
 76
     1
 77
     6
 78
     2
 67
     7
 79
     6
170
     0
171
     0
290
     0
174
     0
 93
        1
 44
0.0
173
     0
291
     0
 45
0.0
1001
ACAD
1000
AcDbSavedByObjectVersion
1070
     0
  0
VISUALSTYLE
  5
37
102
{ACAD_REACTORS
330
2A
102
}
102
{ACAD_XDICTIONARY
360
243
102
}
330
2A
100
AcDbVisualStyle
  2
Thicken
 70
    13
 71
     2
 72
     2
 73
     0
 90
        0
 40
0.6
 41
30.0
 62
     5
 63
     7
421
 16777215
 74
     1
 91
        4
 64
     7
 65
   257
 75
     1
175
     1
 42
1.0
 92
       12
 66
     7
 43
1.0
 76
     1
 77
     6
 78
     2
 67
     7
 79
     5
170
     0
171
     0
290
     0
174
     0
 93
        1
 44
0.0
173
     0
291
     1
 45
0.0
1001
ACAD
1000
AcDbSavedByObjectVersion
1070
     0
  0
VISUALSTYLE
  5
30
102
{ACAD_REACTORS
330
2A
102
}
102
{ACAD_XDICTIONARY
360
235
102
}
330
2A
100
AcDbVisualStyle
  2
Wireframe
 70
     5
 71
     0
 72
     2
 73
     0
 90
        0
 40
0.6
 41
30.0
 62
     5
 63
     7
421
 16777215
 74
     1
 91
        4
 64
     7
 65
   257
 75
     1
175
     1
 42
1.0
 92
        0
 66
   257
 43
1.0
 76
     1
 77
     6
 78
     2
 67
     7
 79
     3
170
     0
171
     0
290
     0
174
     0
 93
        1
 44
0.0
173
     0
291
     0
 45
0.0
1001
ACAD
1000
AcDbSavedByObjectVersion
1070
     0
  0
VISUALSTYLE
  5
40
102
{ACAD_REACTORS
330
2A
102
}
102
{ACAD_XDICTIONARY
360
255
102
}
330
2A
100
AcDbVisualStyle
  2
X-Ray
 70
    25
 71
     2
 72
     2
 73
     1
 90
        1
 40
0.5
 41
30.0
 62
     5
 63
     7
421
 16777215
 74
     1
 91
        0
 64
     7
 65
   257
 75
     1
175
     1
 42
1.0
 92
        8
 66
     7
 43
1.0
 76
     1
 77
     6
 78
     2
 67
     7
 79
     3
170
     0
171
     0
290
     0
174
     0
 93
       13
 44
0.0
173
     0
291
     0
 45
0.0
1001
ACAD
1000
AcDbSavedByObjectVersion
1070
     0
  0
DICTIONARYVAR
  5
228
102
{ACAD_REACTORS
330
227
102
}
330
227
100
DictionaryVariables
280
     0
  1
1:1
  0
DICTIONARYVAR
  5
269
102
{ACAD_REACTORS
330
227
102
}
330
227
100
DictionaryVariables
280
     0
  1
Standard
  0
DICTIONARYVAR
  5
268
102
{ACAD_REACTORS
330
227
102
}
330
227
100
DictionaryVariables
280
     0
  1
Standard
  0
DICTIONARYVAR
  5
229
102
{ACAD_REACTORS
330
227
102
}
330
227
100
DictionaryVariables
280
     0
  1
1
  0
DICTIONARYVAR
  5
22A
102
{ACAD_REACTORS
330
227
102
}
330
227
100
DictionaryVariables
280
     0
  1
2
  0
DICTIONARY
  5
25D
330
45
100
AcDbDictionary
280
     1
281
     1
  3
ACAD_XREC_ROUNDTRIP
360
25E
  0
DICTIONARY
  5
25B
330
44
100
AcDbDictionary
280
     1
281
     1
  3
ACAD_XREC_ROUNDTRIP
360
25C
  0
DICTIONARY
  5
25F
330
46
100
AcDbDictionary
280
     1
281
     1
  3
ACAD_XREC_ROUNDTRIP
360
260
  0
DICTIONARY
  5
265
330
6C
100
AcDbDictionary
280
     1
281
     1
  3
ACAD_XREC_ROUNDTRIP
360
266
  0
DICTIONARY
  5
261
330
6A
100
AcDbDictionary
280
     1
281
     1
  3
ACAD_ROUNDTRIP_2008_TABLESTYLE_CELLSTYLEMAP
360
263
  3
ACAD_XREC_ROUNDTRIP
360
262
  0
DICTIONARY
  5
233
330
2F
100
AcDbDictionary
280
     1
281
     1
  3
ACAD_XREC_ROUNDTRIP
360
234
  0
DICTIONARY
  5
239
330
32
100
AcDbDictionary
280
     1
281
     1
  3
ACAD_XREC_ROUNDTRIP
360
23A
  0
DICTIONARY
  5
241
330
36
100
AcDbDictionary
280
     1
281
     1
  3
ACAD_XREC_ROUNDTRIP
360
242
  0
DICTIONARY
  5
249
330
3A
100
AcDbDictionary
280
     1
281
     1
  3
ACAD_XREC_ROUNDTRIP
360
24A
  0
DICTIONARY
  5
23D
330
34
100
AcDbDictionary
280
     1
281
     1
  3
ACAD_XREC_ROUNDTRIP
360
23E
  0
DICTIONARY
  5
23F
330
35
100
AcDbDictionary
280
     1
281
     1
  3
ACAD_XREC_ROUNDTRIP
360
240
  0
DICTIONARY
  5
24F
330
3D
100
AcDbDictionary
280
     1
281
     1
  3
ACAD_XREC_ROUNDTRIP
360
250
  0
DICTIONARY
  5
247
330
39
100
AcDbDictionary
280
     1
281
     1
  3
ACAD_XREC_ROUNDTRIP
360
248
  0
DICTIONARY
  5
22B
330
2B
100
AcDbDictionary
280
     1
281
     1
  3
ACAD_XREC_ROUNDTRIP
360
22C
  0
DICTIONARY
  5
22D
330
2C
100
AcDbDictionary
280
     1
281
     1
  3
ACAD_XREC_ROUNDTRIP
360
22E
  0
DICTIONARY
  5
22F
330
2D
100
AcDbDictionary
280
     1
281
     1
  3
ACAD_XREC_ROUNDTRIP
360
230
  0
DICTIONARY
  5
231
330
2E
100
AcDbDictionary
280
     1
281
     1
  3
ACAD_XREC_ROUNDTRIP
360
232
  0
DICTIONARY
  5
237
330
31
100
AcDbDictionary
280
     1
281
     1
  3
ACAD_XREC_ROUNDTRIP
360
238
  0
DICTIONARY
  5
24B
330
3B
100
AcDbDictionary
280
     1
281
     1
  3
ACAD_XREC_ROUNDTRIP
360
24C
  0
DICTIONARY
  5
245
330
38
100
AcDbDictionary
280
     1
281
     1
  3
ACAD_XREC_ROUNDTRIP
360
246
  0
DICTIONARY
  5
24D
330
3C
100
AcDbDictionary
280
     1
281
     1
  3
ACAD_XREC_ROUNDTRIP
360
24E
  0
DICTIONARY
  5
23B
330
33
100
AcDbDictionary
280
     1
281
     1
  3
ACAD_XREC_ROUNDTRIP
360
23C
  0
DICTIONARY
  5
259
330
42
100
AcDbDictionary
280
     1
281
     1
  3
ACAD_XREC_ROUNDTRIP
360
25A
  0
DICTIONARY
  5
257
330
41
100
AcDbDictionary
280
     1
281
     1
  3
ACAD_XREC_ROUNDTRIP
360
258
  0
DICTIONARY
  5
251
330
3E
100
AcDbDictionary
280
     1
281
     1
  3
ACAD_XREC_ROUNDTRIP
360
252
  0
DICTIONARY
  5
253
330
3F
100
AcDbDictionary
280
     1
281
     1
  3
ACAD_XREC_ROUNDTRIP
360
254
  0
DICTIONARY
  5
243
330
37
100
AcDbDictionary
280
     1
281
     1
  3
ACAD_XREC_ROUNDTRIP
360
244
  0
DICTIONARY
  5
235
330
30
100
AcDbDictionary
280
     1
281
     1
  3
ACAD_XREC_ROUNDTRIP
360
236
  0
DICTIONARY
  5
255
330
40
100
AcDbDictionary
280
     1
281
     1
  3
ACAD_XREC_ROUNDTRIP
360
256
  0
XRECORD
  5
25E
102
{ACAD_REACTORS
330
25D
102
}
330
25D
100
AcDbXrecord
280
     1
102
MATERIAL
148
0.0
149
0.0
149
0.0
 93
        0
 94
      127
282
     0
 72
     1
 77
     1
171
     1
175
     1
179
     1
273
     0
  0
XRECORD
  5
25C
102
{ACAD_REACTORS
330
25B
102
}
330
25B
100
AcDbXrecord
280
     1
102
MATERIAL
148
0.0
149
0.0
149
0.0
 93
        0
 94
      127
282
     0
 72
     1
 77
     1
171
     1
175
     1
179
     1
273
     0
  0
XRECORD
  5
260
102
{ACAD_REACTORS
330
25F
102
}
330
25F
100
AcDbXrecord
280
     1
102
MATERIAL
148
0.0
149
0.0
149
0.0
 93
        0
 94
      127
282
     0
 72
     1
 77
     1
171
     1
175
     1
179
     1
273
     0
  0
XRECORD
  5
266
102
{ACAD_REACTORS
330
265
102
}
330
265
100
AcDbXrecord
280
     1
102
ACAD_ROUNDTRIP_2010_MLEADER_STYLE
  0
CELLSTYLEMAP
  5
263
102
{ACAD_REACTORS
330
261
102
}
330
261
100
AcDbCellStyleMap
 90
        3
300
CELLSTYLE
  1
TABLEFORMAT_BEGIN
 90
        5
170
     1
 91
        0
 92
    32768
 62
   257
 93
        1
300
CONTENTFORMAT
  1
CONTENTFORMAT_BEGIN
 90
        0
 91
        0
 92
        4
 93
        0
300

 40
0.0
140
1.0
 94
        5
 62
     0
340
11
144
0.25
309
CONTENTFORMAT_END
171
     1
301
MARGIN
  1
CELLMARGIN_BEGIN
 40
0.06
 40
0.06
 40
0.06
 40
0.06
 40
0.06
 40
0.06
309
CELLMARGIN_END
 94
        6
 95
        1
302
GRIDFORMAT
  1
GRIDFORMAT_BEGIN
 90
        0
 91
        1
 62
     0
 92
       -2
340
14
 93
        0
 40
0.045
309
GRIDFORMAT_END
 95
        2
302
GRIDFORMAT
  1
GRIDFORMAT_BEGIN
 90
        0
 91
        1
 62
     0
 92
       -2
340
14
 93
        0
 40
0.045
309
GRIDFORMAT_END
 95
        4
302
GRIDFORMAT
  1
GRIDFORMAT_BEGIN
 90
        0
 91
        1
 62
     0
 92
       -2
340
14
 93
        0
 40
0.045
309
GRIDFORMAT_END
 95
        8
302
GRIDFORMAT
  1
GRIDFORMAT_BEGIN
 90
        0
 91
        1
 62
     0
 92
       -2
340
14
 93
        0
 40
0.045
309
GRIDFORMAT_END
 95
       16
302
GRIDFORMAT
  1
GRIDFORMAT_BEGIN
 90
        0
 91
        1
 62
     0
 92
       -2
340
14
 93
        0
 40
0.045
309
GRIDFORMAT_END
 95
       32
302
GRIDFORMAT
  1
GRIDFORMAT_BEGIN
 90
        0
 91
        1
 62
     0
 92
       -2
340
14
 93
        0
 40
0.045
309
GRIDFORMAT_END
309
TABLEFORMAT_END
  1
CELLSTYLE_BEGIN
 90
        1
 91
        1
300
_TITLE
309
CELLSTYLE_END
300
CELLSTYLE
  1
TABLEFORMAT_BEGIN
 90
        5
170
     1
 91
        0
 92
        0
 62
   257
 93
        1
300
CONTENTFORMAT
  1
CONTENTFORMAT_BEGIN
 90
        0
 91
        0
 92
        4
 93
        0
300

 40
0.0
140
1.0
 94
        5
 62
     0
340
11
144
0.18
309
CONTENTFORMAT_END
171
     1
301
MARGIN
  1
CELLMARGIN_BEGIN
 40
0.06
 40
0.06
 40
0.06
 40
0.06
 40
0.06
 40
0.06
309
CELLMARGIN_END
 94
        6
 95
        1
302
GRIDFORMAT
  1
GRIDFORMAT_BEGIN
 90
        0
 91
        1
 62
     0
 92
       -2
340
14
 93
        0
 40
0.045
309
GRIDFORMAT_END
 95
        2
302
GRIDFORMAT
  1
GRIDFORMAT_BEGIN
 90
        0
 91
        1
 62
     0
 92
       -2
340
14
 93
        0
 40
0.045
309
GRIDFORMAT_END
 95
        4
302
GRIDFORMAT
  1
GRIDFORMAT_BEGIN
 90
        0
 91
        1
 62
     0
 92
       -2
340
14
 93
        0
 40
0.045
309
GRIDFORMAT_END
 95
        8
302
GRIDFORMAT
  1
GRIDFORMAT_BEGIN
 90
        0
 91
        1
 62
     0
 92
       -2
340
14
 93
        0
 40
0.045
309
GRIDFORMAT_END
 95
       16
302
GRIDFORMAT
  1
GRIDFORMAT_BEGIN
 90
        0
 91
        1
 62
     0
 92
       -2
340
14
 93
        0
 40
0.045
309
GRIDFORMAT_END
 95
       32
302
GRIDFORMAT
  1
GRIDFORMAT_BEGIN
 90
        0
 91
        1
 62
     0
 92
       -2
340
14
 93
        0
 40
0.045
309
GRIDFORMAT_END
309
TABLEFORMAT_END
  1
CELLSTYLE_BEGIN
 90
        2
 91
        1
300
_HEADER
309
CELLSTYLE_END
300
CELLSTYLE
  1
TABLEFORMAT_BEGIN
 90
        5
170
     1
 91
        0
 92
        0
 62
   257
 93
        1
300
CONTENTFORMAT
  1
CONTENTFORMAT_BEGIN
 90
        0
 91
        0
 92
        4
 93
        0
300

 40
0.0
140
1.0
 94
        2
 62
     0
340
11
144
0.18
309
CONTENTFORMAT_END
171
     1
301
MARGIN
  1
CELLMARGIN_BEGIN
 40
0.06
 40
0.06
 40
0.06
 40
0.06
 40
0.06
 40
0.06
309
CELLMARGIN_END
 94
        6
 95
        1
302
GRIDFORMAT
  1
GRIDFORMAT_BEGIN
 90
        0
 91
        1
 62
     0
 92
       -2
340
14
 93
        0
 40
0.045
309
GRIDFORMAT_END
 95
        2
302
GRIDFORMAT
  1
GRIDFORMAT_BEGIN
 90
        0
 91
        1
 62
     0
 92
       -2
340
14
 93
        0
 40
0.045
309
GRIDFORMAT_END
 95
        4
302
GRIDFORMAT
  1
GRIDFORMAT_BEGIN
 90
        0
 91
        1
 62
     0
 92
       -2
340
14
 93
        0
 40
0.045
309
GRIDFORMAT_END
 95
        8
302
GRIDFORMAT
  1
GRIDFORMAT_BEGIN
 90
        0
 91
        1
 62
     0
 92
       -2
340
14
 93
        0
 40
0.045
309
GRIDFORMAT_END
 95
       16
302
GRIDFORMAT
  1
GRIDFORMAT_BEGIN
 90
        0
 91
        1
 62
     0
 92
       -2
340
14
 93
        0
 40
0.045
309
GRIDFORMAT_END
 95
       32
302
GRIDFORMAT
  1
GRIDFORMAT_BEGIN
 90
        0
 91
        1
 62
     0
 92
       -2
340
14
 93
        0
 40
0.045
309
GRIDFORMAT_END
309
TABLEFORMAT_END
  1
CELLSTYLE_BEGIN
 90
        3
 91
        2
300
_DATA
309
CELLSTYLE_END
  0
XRECORD
  5
262
102
{ACAD_REACTORS
330
261
102
}
330
261
100
AcDbXrecord
280
     1
102
ACAD_ROUNDTRIP_PRE2007_TABLESTYLE
 90
        4
 91
        0
  1

 92
        4
 93
        0
  2

 94
        4
 95
        0
  3

  0
XRECORD
  5
234
102
{ACAD_REACTORS
330
233
102
}
330
233
100
AcDbXrecord
280
     1
102
RTVSPropertyOp0
 70
     1
102
RTVSPropertyOp1
 70
     1
102
RTVSPropertyOp2
 70
     1
102
RTVSPropertyOp3
 70
     1
102
RTVSPropertyOp4
 70
     1
102
RTVSPropertyOp5
 70
     1
102
RTVSPropertyOp6
 70
     1
102
RTVSPropertyOp7
 70
     1
102
RTVSPropertyOp8
 70
     1
102
RTVSPropertyOp9
 70
     1
102
RTVSPropertyOp10
 70
     1
102
RTVSPropertyOp11
 70
     1
102
RTVSPropertyOp12
 70
     1
102
RTVSPropertyOp13
 70
     1
102
RTVSPropertyOp14
 70
     1
102
RTVSPropertyOp15
 70
     1
102
RTVSPropertyOp16
 70
     1
102
RTVSPropertyOp17
 70
     1
102
RTVSPropertyOp18
 70
     1
102
RTVSPropertyOp19
 70
     1
102
RTVSPropertyOp20
 70
     1
102
RTVSPropertyOp21
 70
     1
102
RTVSPropertyOp22
 70
     1
102
RTVSPropertyOp23
 70
     1
102
RTVSPropertyOp24
 70
     1
102
RTVSPropertyOp25
 70
     1
102
RTVSPropertyOp26
 70
     1
102
RTVSPropertyOp27
 70
     1
102
RTVSPropertyOp28
 70
     1
102
RTVSPropertyOp29
 70
     1
102
RTVSPropertyOp30
 70
     1
102
RTVSPropertyOp31
 70
     1
102
RTVSPropertyOp32
 70
     1
102
RTVSPropertyOp33
 70
     1
102
RTVSPropertyOp34
 70
     1
102
RTVSPropertyOp35
 70
     1
102
RTVSPropertyOp36
 70
     1
102
RTVSPropertyOp37
 70
     1
102
RTVSPropertyOp38
 70
     1
102
RTVSPropertyOp39
 70
     1
102
RTVSPropertyOp40
 70
     1
102
RTVSPropertyOp41
 70
     1
102
RTVSPropertyOp42
 70
     1
102
RTVSPropertyOp43
 70
     1
102
RTVSPropertyOp44
 70
     1
102
RTVSPropertyOp45
 70
     1
102
RTVSPropertyOp46
 70
     1
102
RTVSPropertyOp47
 70
     1
102
RTVSPropertyOp48
 70
     1
102
RTVSPropertyOp49
 70
     1
102
RTVSPropertyOp50
 70
     1
102
RTVSPropertyOp51
 70
     0
102
RTVSPropertyOp52
 70
     0
102
RTVSPropertyOp53
 70
     1
102
RTVSPropertyOp54
 70
     1
102
RTVSPropertyOp55
 70
     1
102
RTVSPropertyOp56
 70
     1
102
RTVSPropertyOp57
 70
     1
102
RTVSPost2010Prop28
280
     1
102
RTVSPost2010PropOp28
 70
     1
102
RTVSPost2010Prop29
280
     1
102
RTVSPost2010PropOp29
 70
     1
102
RTVSPost2010Prop30
280
     0
102
RTVSPost2010PropOp30
 70
     1
102
RTVSPost2010Prop31
280
     0
102
RTVSPost2010PropOp31
 70
     1
102
RTVSPost2010Prop32
280
     0
102
RTVSPost2010PropOp32
 70
     1
102
RTVSPost2010Prop33
280
     0
102
RTVSPost2010PropOp33
 70
     1
102
RTVSPost2010Prop34
280
     0
102
RTVSPost2010PropOp34
 70
     1
102
RTVSPost2010Prop35
280
     0
102
RTVSPost2010PropOp35
 70
     1
102
RTVSPost2010Prop36
280
     0
102
RTVSPost2010PropOp36
 70
     1
102
RTVSPost2010Prop37
 90
       50
102
RTVSPost2010PropOp37
 70
     1
102
RTVSPost2010Prop38
140
0.0
102
RTVSPost2010PropOp38
 70
     1
102
RTVSPost2010Prop39
140
1.0
102
RTVSPost2010PropOp39
 70
     1
102
RTVSPost2010Prop40
 90
        0
102
RTVSPost2010PropOp40
 70
     1
102
RTVSPost2010Prop41ColorIndex
 90
       18
102
RTVSPost2010Prop41ColorRGB
 90
        0
102
RTVSPost2010PropOp41
 70
     1
102
RTVSPost2010Prop42
 90
       50
102
RTVSPost2010PropOp42
 70
     1
102
RTVSPost2010Prop43
 90
        3
102
RTVSPost2010PropOp43
 70
     1
102
RTVSPost2010Prop44ColorIndex
 90
        5
102
RTVSPost2010Prop44ColorRGB
 90
      255
102
RTVSPost2010PropOp44
 70
     1
102
RTVSPost2010Prop45
280
     0
102
RTVSPost2010PropOp45
 70
     1
102
RTVSPost2010Prop46
 90
       50
102
RTVSPost2010PropOp46
 70
     1
102
RTVSPost2010Prop47
 90
       50
102
RTVSPost2010PropOp47
 70
     1
102
RTVSPost2010Prop48
 90
       50
102
RTVSPost2010PropOp48
 70
     1
102
RTVSPost2010Prop49
280
     0
102
RTVSPost2010PropOp49
 70
     1
102
RTVSPost2010Prop50
 90
       50
102
RTVSPost2010PropOp50
 70
     1
102
RTVSPost2010Prop51ColorIndex
 90
      256
102
RTVSPost2010Prop51ColorRGB
 90
-16777216
102
RTVSPost2010PropOp51
 70
     0
102
RTVSPost2010Prop52
140
1.0
102
RTVSPost2010PropOp52
 70
     0
102
RTVSPost2010Prop53
 90
        2
102
RTVSPost2010PropOp53
 70
     1
102
RTVSPost2010Prop54
  1
strokes_ogs.tif
102
RTVSPost2010PropOp54
 70
     1
102
RTVSPost2010Prop55
280
     0
102
RTVSPost2010PropOp55
 70
     1
102
RTVSPost2010Prop56
140
1.0
102
RTVSPost2010PropOp56
 70
     1
102
RTVSPost2010Prop57
140
1.0
102
RTVSPost2010PropOp57
 70
     1
  0
XRECORD
  5
23A
102
{ACAD_REACTORS
330
239
102
}
330
239
100
AcDbXrecord
280
     1
102
RTVSPropertyOp0
 70
     1
102
RTVSPropertyOp1
 70
     1
102
RTVSPropertyOp2
 70
     1
102
RTVSPropertyOp3
 70
     1
102
RTVSPropertyOp4
 70
     1
102
RTVSPropertyOp5
 70
     1
102
RTVSPropertyOp6
 70
     1
102
RTVSPropertyOp7
 70
     1
102
RTVSPropertyOp8
 70
     1
102
RTVSPropertyOp9
 70
     1
102
RTVSPropertyOp10
 70
     1
102
RTVSPropertyOp11
 70
     1
102
RTVSPropertyOp12
 70
     1
102
RTVSPropertyOp13
 70
     1
102
RTVSPropertyOp14
 70
     1
102
RTVSPropertyOp15
 70
     1
102
RTVSPropertyOp16
 70
     1
102
RTVSPropertyOp17
 70
     1
102
RTVSPropertyOp18
 70
     1
102
RTVSPropertyOp19
 70
     1
102
RTVSPropertyOp20
 70
     1
102
RTVSPropertyOp21
 70
     1
102
RTVSPropertyOp22
 70
     1
102
RTVSPropertyOp23
 70
     1
102
RTVSPropertyOp24
 70
     1
102
RTVSPropertyOp25
 70
     1
102
RTVSPropertyOp26
 70
     1
102
RTVSPropertyOp27
 70
     1
102
RTVSPropertyOp28
 70
     1
102
RTVSPropertyOp29
 70
     1
102
RTVSPropertyOp30
 70
     1
102
RTVSPropertyOp31
 70
     1
102
RTVSPropertyOp32
 70
     1
102
RTVSPropertyOp33
 70
     1
102
RTVSPropertyOp34
 70
     1
102
RTVSPropertyOp35
 70
     1
102
RTVSPropertyOp36
 70
     1
102
RTVSPropertyOp37
 70
     1
102
RTVSPropertyOp38
 70
     1
102
RTVSPropertyOp39
 70
     1
102
RTVSPropertyOp40
 70
     1
102
RTVSPropertyOp41
 70
     1
102
RTVSPropertyOp42
 70
     1
102
RTVSPropertyOp43
 70
     1
102
RTVSPropertyOp44
 70
     1
102
RTVSPropertyOp45
 70
     1
102
RTVSPropertyOp46
 70
     1
102
RTVSPropertyOp47
 70
     1
102
RTVSPropertyOp48
 70
     1
102
RTVSPropertyOp49
 70
     1
102
RTVSPropertyOp50
 70
     1
102
RTVSPropertyOp51
 70
     0
102
RTVSPropertyOp52
 70
     0
102
RTVSPropertyOp53
 70
     1
102
RTVSPropertyOp54
 70
     1
102
RTVSPropertyOp55
 70
     1
102
RTVSPropertyOp56
 70
     1
102
RTVSPropertyOp57
 70
     1
102
RTVSPost2010Prop28
280
     0
102
RTVSPost2010PropOp28
 70
     1
102
RTVSPost2010Prop29
280
     1
102
RTVSPost2010PropOp29
 70
     1
102
RTVSPost2010Prop30
280
     1
102
RTVSPost2010PropOp30
 70
     1
102
RTVSPost2010Prop31
280
     0
102
RTVSPost2010PropOp31
 70
     1
102
RTVSPost2010Prop32
280
     0
102
RTVSPost2010PropOp32
 70
     1
102
RTVSPost2010Prop33
280
     0
102
RTVSPost2010PropOp33
 70
     1
102
RTVSPost2010Prop34
280
     0
102
RTVSPost2010PropOp34
 70
     1
102
RTVSPost2010Prop35
280
     0
102
RTVSPost2010PropOp35
 70
     1
102
RTVSPost2010Prop36
280
     0
102
RTVSPost2010PropOp36
 70
     1
102
RTVSPost2010Prop37
 90
       50
102
RTVSPost2010PropOp37
 70
     1
102
RTVSPost2010Prop38
140
0.0
102
RTVSPost2010PropOp38
 70
     1
102
RTVSPost2010Prop39
140
1.0
102
RTVSPost2010PropOp39
 70
     1
102
RTVSPost2010Prop40
 90
        0
102
RTVSPost2010PropOp40
 70
     1
102
RTVSPost2010Prop41ColorIndex
 90
       18
102
RTVSPost2010Prop41ColorRGB
 90
        0
102
RTVSPost2010PropOp41
 70
     1
102
RTVSPost2010Prop42
 90
       50
102
RTVSPost2010PropOp42
 70
     1
102
RTVSPost2010Prop43
 90
        3
102
RTVSPost2010PropOp43
 70
     1
102
RTVSPost2010Prop44ColorIndex
 90
        5
102
RTVSPost2010Prop44ColorRGB
 90
      255
102
RTVSPost2010PropOp44
 70
     1
102
RTVSPost2010Prop45
280
     0
102
RTVSPost2010PropOp45
 70
     1
102
RTVSPost2010Prop46
 90
       50
102
RTVSPost2010PropOp46
 70
     1
102
RTVSPost2010Prop47
 90
       50
102
RTVSPost2010PropOp47
 70
     1
102
RTVSPost2010Prop48
 90
       50
102
RTVSPost2010PropOp48
 70
     1
102
RTVSPost2010Prop49
280
     0
102
RTVSPost2010PropOp49
 70
     1
102
RTVSPost2010Prop50
 90
       50
102
RTVSPost2010PropOp50
 70
     1
102
RTVSPost2010Prop51ColorIndex
 90
      256
102
RTVSPost2010Prop51ColorRGB
 90
-16777216
102
RTVSPost2010PropOp51
 70
     0
102
RTVSPost2010Prop52
140
1.0
102
RTVSPost2010PropOp52
 70
     0
102
RTVSPost2010Prop53
 90
        2
102
RTVSPost2010PropOp53
 70
     1
102
RTVSPost2010Prop54
  1
strokes_ogs.tif
102
RTVSPost2010PropOp54
 70
     1
102
RTVSPost2010Prop55
280
     0
102
RTVSPost2010PropOp55
 70
     1
102
RTVSPost2010Prop56
140
1.0
102
RTVSPost2010PropOp56
 70
     1
102
RTVSPost2010Prop57
140
1.0
102
RTVSPost2010PropOp57
 70
     1
  0
XRECORD
  5
242
102
{ACAD_REACTORS
330
241
102
}
330
241
100
AcDbXrecord
280
     1
102
RTVSPropertyOp0
 70
     1
102
RTVSPropertyOp1
 70
     1
102
RTVSPropertyOp2
 70
     1
102
RTVSPropertyOp3
 70
     1
102
RTVSPropertyOp4
 70
     1
102
RTVSPropertyOp5
 70
     1
102
RTVSPropertyOp6
 70
     1
102
RTVSPropertyOp7
 70
     1
102
RTVSPropertyOp8
 70
     1
102
RTVSPropertyOp9
 70
     1
102
RTVSPropertyOp10
 70
     1
102
RTVSPropertyOp11
 70
     1
102
RTVSPropertyOp12
 70
     1
102
RTVSPropertyOp13
 70
     1
102
RTVSPropertyOp14
 70
     1
102
RTVSPropertyOp15
 70
     1
102
RTVSPropertyOp16
 70
     1
102
RTVSPropertyOp17
 70
     1
102
RTVSPropertyOp18
 70
     1
102
RTVSPropertyOp19
 70
     1
102
RTVSPropertyOp20
 70
     1
102
RTVSPropertyOp21
 70
     1
102
RTVSPropertyOp22
 70
     1
102
RTVSPropertyOp23
 70
     1
102
RTVSPropertyOp24
 70
     1
102
RTVSPropertyOp25
 70
     1
102
RTVSPropertyOp26
 70
     1
102
RTVSPropertyOp27
 70
     1
102
RTVSPropertyOp28
 70
     1
102
RTVSPropertyOp29
 70
     1
102
RTVSPropertyOp30
 70
     1
102
RTVSPropertyOp31
 70
     1
102
RTVSPropertyOp32
 70
     1
102
RTVSPropertyOp33
 70
     1
102
RTVSPropertyOp34
 70
     1
102
RTVSPropertyOp35
 70
     1
102
RTVSPropertyOp36
 70
     1
102
RTVSPropertyOp37
 70
     1
102
RTVSPropertyOp38
 70
     1
102
RTVSPropertyOp39
 70
     1
102
RTVSPropertyOp40
 70
     1
102
RTVSPropertyOp41
 70
     1
102
RTVSPropertyOp42
 70
     1
102
RTVSPropertyOp43
 70
     1
102
RTVSPropertyOp44
 70
     1
102
RTVSPropertyOp45
 70
     1
102
RTVSPropertyOp46
 70
     1
102
RTVSPropertyOp47
 70
     1
102
RTVSPropertyOp48
 70
     1
102
RTVSPropertyOp49
 70
     1
102
RTVSPropertyOp50
 70
     1
102
RTVSPropertyOp51
 70
     0
102
RTVSPropertyOp52
 70
     0
102
RTVSPropertyOp53
 70
     1
102
RTVSPropertyOp54
 70
     1
102
RTVSPropertyOp55
 70
     1
102
RTVSPropertyOp56
 70
     1
102
RTVSPropertyOp57
 70
     1
102
RTVSPost2010Prop28
280
     0
102
RTVSPost2010PropOp28
 70
     1
102
RTVSPost2010Prop29
280
     1
102
RTVSPost2010PropOp29
 70
     1
102
RTVSPost2010Prop30
280
     1
102
RTVSPost2010PropOp30
 70
     1
102
RTVSPost2010Prop31
280
     0
102
RTVSPost2010PropOp31
 70
     1
102
RTVSPost2010Prop32
280
     0
102
RTVSPost2010PropOp32
 70
     1
102
RTVSPost2010Prop33
280
     0
102
RTVSPost2010PropOp33
 70
     1
102
RTVSPost2010Prop34
280
     0
102
RTVSPost2010PropOp34
 70
     1
102
RTVSPost2010Prop35
280
     0
102
RTVSPost2010PropOp35
 70
     1
102
RTVSPost2010Prop36
280
     0
102
RTVSPost2010PropOp36
 70
     1
102
RTVSPost2010Prop37
 90
       50
102
RTVSPost2010PropOp37
 70
     1
102
RTVSPost2010Prop38
140
0.0
102
RTVSPost2010PropOp38
 70
     1
102
RTVSPost2010Prop39
140
1.0
102
RTVSPost2010PropOp39
 70
     1
102
RTVSPost2010Prop40
 90
        0
102
RTVSPost2010PropOp40
 70
     1
102
RTVSPost2010Prop41ColorIndex
 90
       18
102
RTVSPost2010Prop41ColorRGB
 90
        0
102
RTVSPost2010PropOp41
 70
     1
102
RTVSPost2010Prop42
 90
       50
102
RTVSPost2010PropOp42
 70
     1
102
RTVSPost2010Prop43
 90
        3
102
RTVSPost2010PropOp43
 70
     1
102
RTVSPost2010Prop44ColorIndex
 90
        5
102
RTVSPost2010Prop44ColorRGB
 90
      255
102
RTVSPost2010PropOp44
 70
     1
102
RTVSPost2010Prop45
280
     0
102
RTVSPost2010PropOp45
 70
     1
102
RTVSPost2010Prop46
 90
       50
102
RTVSPost2010PropOp46
 70
     1
102
RTVSPost2010Prop47
 90
       50
102
RTVSPost2010PropOp47
 70
     1
102
RTVSPost2010Prop48
 90
       50
102
RTVSPost2010PropOp48
 70
     1
102
RTVSPost2010Prop49
280
     0
102
RTVSPost2010PropOp49
 70
     1
102
RTVSPost2010Prop50
 90
       50
102
RTVSPost2010PropOp50
 70
     1
102
RTVSPost2010Prop51ColorIndex
 90
      256
102
RTVSPost2010Prop51ColorRGB
 90
-16777216
102
RTVSPost2010PropOp51
 70
     0
102
RTVSPost2010Prop52
140
1.0
102
RTVSPost2010PropOp52
 70
     0
102
RTVSPost2010Prop53
 90
        2
102
RTVSPost2010PropOp53
 70
     1
102
RTVSPost2010Prop54
  1
strokes_ogs.tif
102
RTVSPost2010PropOp54
 70
     1
102
RTVSPost2010Prop55
280
     0
102
RTVSPost2010PropOp55
 70
     1
102
RTVSPost2010Prop56
140
1.0
102
RTVSPost2010PropOp56
 70
     1
102
RTVSPost2010Prop57
140
1.0
102
RTVSPost2010PropOp57
 70
     1
  0
XRECORD
  5
24A
102
{ACAD_REACTORS
330
249
102
}
330
249
100
AcDbXrecord
280
     1
102
RTVSPropertyOp0
 70
     1
102
RTVSPropertyOp1
 70
     1
102
RTVSPropertyOp2
 70
     1
102
RTVSPropertyOp3
 70
     1
102
RTVSPropertyOp4
 70
     1
102
RTVSPropertyOp5
 70
     1
102
RTVSPropertyOp6
 70
     1
102
RTVSPropertyOp7
 70
     1
102
RTVSPropertyOp8
 70
     1
102
RTVSPropertyOp9
 70
     1
102
RTVSPropertyOp10
 70
     1
102
RTVSPropertyOp11
 70
     1
102
RTVSPropertyOp12
 70
     1
102
RTVSPropertyOp13
 70
     1
102
RTVSPropertyOp14
 70
     1
102
RTVSPropertyOp15
 70
     1
102
RTVSPropertyOp16
 70
     1
102
RTVSPropertyOp17
 70
     1
102
RTVSPropertyOp18
 70
     1
102
RTVSPropertyOp19
 70
     1
102
RTVSPropertyOp20
 70
     1
102
RTVSPropertyOp21
 70
     1
102
RTVSPropertyOp22
 70
     1
102
RTVSPropertyOp23
 70
     1
102
RTVSPropertyOp24
 70
     1
102
RTVSPropertyOp25
 70
     1
102
RTVSPropertyOp26
 70
     1
102
RTVSPropertyOp27
 70
     1
102
RTVSPropertyOp28
 70
     1
102
RTVSPropertyOp29
 70
     1
102
RTVSPropertyOp30
 70
     1
102
RTVSPropertyOp31
 70
     1
102
RTVSPropertyOp32
 70
     1
102
RTVSPropertyOp33
 70
     1
102
RTVSPropertyOp34
 70
     1
102
RTVSPropertyOp35
 70
     1
102
RTVSPropertyOp36
 70
     1
102
RTVSPropertyOp37
 70
     1
102
RTVSPropertyOp38
 70
     1
102
RTVSPropertyOp39
 70
     1
102
RTVSPropertyOp40
 70
     1
102
RTVSPropertyOp41
 70
     1
102
RTVSPropertyOp42
 70
     1
102
RTVSPropertyOp43
 70
     1
102
RTVSPropertyOp44
 70
     1
102
RTVSPropertyOp45
 70
     1
102
RTVSPropertyOp46
 70
     1
102
RTVSPropertyOp47
 70
     1
102
RTVSPropertyOp48
 70
     1
102
RTVSPropertyOp49
 70
     1
102
RTVSPropertyOp50
 70
     1
102
RTVSPropertyOp51
 70
     0
102
RTVSPropertyOp52
 70
     0
102
RTVSPropertyOp53
 70
     1
102
RTVSPropertyOp54
 70
     1
102
RTVSPropertyOp55
 70
     1
102
RTVSPropertyOp56
 70
     1
102
RTVSPropertyOp57
 70
     1
102
RTVSPost2010Prop28
280
     0
102
RTVSPost2010PropOp28
 70
     1
102
RTVSPost2010Prop29
280
     1
102
RTVSPost2010PropOp29
 70
     1
102
RTVSPost2010Prop30
280
     1
102
RTVSPost2010PropOp30
 70
     1
102
RTVSPost2010Prop31
280
     0
102
RTVSPost2010PropOp31
 70
     1
102
RTVSPost2010Prop32
280
     0
102
RTVSPost2010PropOp32
 70
     1
102
RTVSPost2010Prop33
280
     0
102
RTVSPost2010PropOp33
 70
     1
102
RTVSPost2010Prop34
280
     0
102
RTVSPost2010PropOp34
 70
     1
102
RTVSPost2010Prop35
280
     0
102
RTVSPost2010PropOp35
 70
     1
102
RTVSPost2010Prop36
280
     0
102
RTVSPost2010PropOp36
 70
     1
102
RTVSPost2010Prop37
 90
       50
102
RTVSPost2010PropOp37
 70
     1
102
RTVSPost2010Prop38
140
0.0
102
RTVSPost2010PropOp38
 70
     1
102
RTVSPost2010Prop39
140
1.0
102
RTVSPost2010PropOp39
 70
     1
102
RTVSPost2010Prop40
 90
        0
102
RTVSPost2010PropOp40
 70
     1
102
RTVSPost2010Prop41ColorIndex
 90
       18
102
RTVSPost2010Prop41ColorRGB
 90
        0
102
RTVSPost2010PropOp41
 70
     1
102
RTVSPost2010Prop42
 90
       50
102
RTVSPost2010PropOp42
 70
     1
102
RTVSPost2010Prop43
 90
        3
102
RTVSPost2010PropOp43
 70
     1
102
RTVSPost2010Prop44ColorIndex
 90
        5
102
RTVSPost2010Prop44ColorRGB
 90
      255
102
RTVSPost2010PropOp44
 70
     1
102
RTVSPost2010Prop45
280
     0
102
RTVSPost2010PropOp45
 70
     1
102
RTVSPost2010Prop46
 90
       50
102
RTVSPost2010PropOp46
 70
     1
102
RTVSPost2010Prop47
 90
       50
102
RTVSPost2010PropOp47
 70
     1
102
RTVSPost2010Prop48
 90
       50
102
RTVSPost2010PropOp48
 70
     1
102
RTVSPost2010Prop49
280
     0
102
RTVSPost2010PropOp49
 70
     1
102
RTVSPost2010Prop50
 90
       50
102
RTVSPost2010PropOp50
 70
     1
102
RTVSPost2010Prop51ColorIndex
 90
      256
102
RTVSPost2010Prop51ColorRGB
 90
-16777216
102
RTVSPost2010PropOp51
 70
     0
102
RTVSPost2010Prop52
140
1.0
102
RTVSPost2010PropOp52
 70
     0
102
RTVSPost2010Prop53
 90
        2
102
RTVSPost2010PropOp53
 70
     1
102
RTVSPost2010Prop54
  1
strokes_ogs.tif
102
RTVSPost2010PropOp54
 70
     1
102
RTVSPost2010Prop55
280
     0
102
RTVSPost2010PropOp55
 70
     1
102
RTVSPost2010Prop56
140
1.0
102
RTVSPost2010PropOp56
 70
     1
102
RTVSPost2010Prop57
140
1.0
102
RTVSPost2010PropOp57
 70
     1
  0
XRECORD
  5
23E
102
{ACAD_REACTORS
330
23D
102
}
330
23D
100
AcDbXrecord
280
     1
102
RTVSPropertyOp0
 70
     1
102
RTVSPropertyOp1
 70
     1
102
RTVSPropertyOp2
 70
     1
102
RTVSPropertyOp3
 70
     1
102
RTVSPropertyOp4
 70
     1
102
RTVSPropertyOp5
 70
     1
102
RTVSPropertyOp6
 70
     1
102
RTVSPropertyOp7
 70
     1
102
RTVSPropertyOp8
 70
     1
102
RTVSPropertyOp9
 70
     1
102
RTVSPropertyOp10
 70
     1
102
RTVSPropertyOp11
 70
     1
102
RTVSPropertyOp12
 70
     1
102
RTVSPropertyOp13
 70
     1
102
RTVSPropertyOp14
 70
     1
102
RTVSPropertyOp15
 70
     1
102
RTVSPropertyOp16
 70
     1
102
RTVSPropertyOp17
 70
     1
102
RTVSPropertyOp18
 70
     1
102
RTVSPropertyOp19
 70
     1
102
RTVSPropertyOp20
 70
     1
102
RTVSPropertyOp21
 70
     1
102
RTVSPropertyOp22
 70
     1
102
RTVSPropertyOp23
 70
     1
102
RTVSPropertyOp24
 70
     1
102
RTVSPropertyOp25
 70
     1
102
RTVSPropertyOp26
 70
     1
102
RTVSPropertyOp27
 70
     1
102
RTVSPropertyOp28
 70
     1
102
RTVSPropertyOp29
 70
     1
102
RTVSPropertyOp30
 70
     1
102
RTVSPropertyOp31
 70
     1
102
RTVSPropertyOp32
 70
     1
102
RTVSPropertyOp33
 70
     1
102
RTVSPropertyOp34
 70
     1
102
RTVSPropertyOp35
 70
     1
102
RTVSPropertyOp36
 70
     1
102
RTVSPropertyOp37
 70
     1
102
RTVSPropertyOp38
 70
     1
102
RTVSPropertyOp39
 70
     1
102
RTVSPropertyOp40
 70
     1
102
RTVSPropertyOp41
 70
     1
102
RTVSPropertyOp42
 70
     1
102
RTVSPropertyOp43
 70
     1
102
RTVSPropertyOp44
 70
     1
102
RTVSPropertyOp45
 70
     1
102
RTVSPropertyOp46
 70
     1
102
RTVSPropertyOp47
 70
     1
102
RTVSPropertyOp48
 70
     1
102
RTVSPropertyOp49
 70
     1
102
RTVSPropertyOp50
 70
     1
102
RTVSPropertyOp51
 70
     0
102
RTVSPropertyOp52
 70
     0
102
RTVSPropertyOp53
 70
     1
102
RTVSPropertyOp54
 70
     1
102
RTVSPropertyOp55
 70
     1
102
RTVSPropertyOp56
 70
     1
102
RTVSPropertyOp57
 70
     1
102
RTVSPost2010Prop28
280
     0
102
RTVSPost2010PropOp28
 70
     1
102
RTVSPost2010Prop29
280
     1
102
RTVSPost2010PropOp29
 70
     1
102
RTVSPost2010Prop30
280
     1
102
RTVSPost2010PropOp30
 70
     1
102
RTVSPost2010Prop31
280
     0
102
RTVSPost2010PropOp31
 70
     1
102
RTVSPost2010Prop32
280
     0
102
RTVSPost2010PropOp32
 70
     1
102
RTVSPost2010Prop33
280
     0
102
RTVSPost2010PropOp33
 70
     1
102
RTVSPost2010Prop34
280
     0
102
RTVSPost2010PropOp34
 70
     1
102
RTVSPost2010Prop35
280
     0
102
RTVSPost2010PropOp35
 70
     1
102
RTVSPost2010Prop36
280
     0
102
RTVSPost2010PropOp36
 70
     1
102
RTVSPost2010Prop37
 90
       50
102
RTVSPost2010PropOp37
 70
     1
102
RTVSPost2010Prop38
140
0.0
102
RTVSPost2010PropOp38
 70
     1
102
RTVSPost2010Prop39
140
1.0
102
RTVSPost2010PropOp39
 70
     1
102
RTVSPost2010Prop40
 90
        0
102
RTVSPost2010PropOp40
 70
     1
102
RTVSPost2010Prop41ColorIndex
 90
       18
102
RTVSPost2010Prop41ColorRGB
 90
        0
102
RTVSPost2010PropOp41
 70
     1
102
RTVSPost2010Prop42
 90
       50
102
RTVSPost2010PropOp42
 70
     1
102
RTVSPost2010Prop43
 90
        3
102
RTVSPost2010PropOp43
 70
     1
102
RTVSPost2010Prop44ColorIndex
 90
        5
102
RTVSPost2010Prop44ColorRGB
 90
      255
102
RTVSPost2010PropOp44
 70
     1
102
RTVSPost2010Prop45
280
     0
102
RTVSPost2010PropOp45
 70
     1
102
RTVSPost2010Prop46
 90
       50
102
RTVSPost2010PropOp46
 70
     1
102
RTVSPost2010Prop47
 90
       50
102
RTVSPost2010PropOp47
 70
     1
102
RTVSPost2010Prop48
 90
       50
102
RTVSPost2010PropOp48
 70
     1
102
RTVSPost2010Prop49
280
     0
102
RTVSPost2010PropOp49
 70
     1
102
RTVSPost2010Prop50
 90
       50
102
RTVSPost2010PropOp50
 70
     1
102
RTVSPost2010Prop51ColorIndex
 90
      256
102
RTVSPost2010Prop51ColorRGB
 90
-16777216
102
RTVSPost2010PropOp51
 70
     0
102
RTVSPost2010Prop52
140
1.0
102
RTVSPost2010PropOp52
 70
     0
102
RTVSPost2010Prop53
 90
        2
102
RTVSPost2010PropOp53
 70
     1
102
RTVSPost2010Prop54
  1
strokes_ogs.tif
102
RTVSPost2010PropOp54
 70
     1
102
RTVSPost2010Prop55
280
     0
102
RTVSPost2010PropOp55
 70
     1
102
RTVSPost2010Prop56
140
1.0
102
RTVSPost2010PropOp56
 70
     1
102
RTVSPost2010Prop57
140
1.0
102
RTVSPost2010PropOp57
 70
     1
  0
XRECORD
  5
240
102
{ACAD_REACTORS
330
23F
102
}
330
23F
100
AcDbXrecord
280
     1
102
RTVSPropertyOp0
 70
     1
102
RTVSPropertyOp1
 70
     1
102
RTVSPropertyOp2
 70
     1
102
RTVSPropertyOp3
 70
     1
102
RTVSPropertyOp4
 70
     1
102
RTVSPropertyOp5
 70
     1
102
RTVSPropertyOp6
 70
     1
102
RTVSPropertyOp7
 70
     1
102
RTVSPropertyOp8
 70
     1
102
RTVSPropertyOp9
 70
     1
102
RTVSPropertyOp10
 70
     1
102
RTVSPropertyOp11
 70
     1
102
RTVSPropertyOp12
 70
     1
102
RTVSPropertyOp13
 70
     1
102
RTVSPropertyOp14
 70
     1
102
RTVSPropertyOp15
 70
     1
102
RTVSPropertyOp16
 70
     1
102
RTVSPropertyOp17
 70
     1
102
RTVSPropertyOp18
 70
     1
102
RTVSPropertyOp19
 70
     1
102
RTVSPropertyOp20
 70
     1
102
RTVSPropertyOp21
 70
     1
102
RTVSPropertyOp22
 70
     1
102
RTVSPropertyOp23
 70
     1
102
RTVSPropertyOp24
 70
     1
102
RTVSPropertyOp25
 70
     1
102
RTVSPropertyOp26
 70
     1
102
RTVSPropertyOp27
 70
     1
102
RTVSPropertyOp28
 70
     1
102
RTVSPropertyOp29
 70
     1
102
RTVSPropertyOp30
 70
     1
102
RTVSPropertyOp31
 70
     1
102
RTVSPropertyOp32
 70
     1
102
RTVSPropertyOp33
 70
     1
102
RTVSPropertyOp34
 70
     1
102
RTVSPropertyOp35
 70
     1
102
RTVSPropertyOp36
 70
     1
102
RTVSPropertyOp37
 70
     1
102
RTVSPropertyOp38
 70
     1
102
RTVSPropertyOp39
 70
     1
102
RTVSPropertyOp40
 70
     1
102
RTVSPropertyOp41
 70
     1
102
RTVSPropertyOp42
 70
     1
102
RTVSPropertyOp43
 70
     1
102
RTVSPropertyOp44
 70
     1
102
RTVSPropertyOp45
 70
     1
102
RTVSPropertyOp46
 70
     1
102
RTVSPropertyOp47
 70
     1
102
RTVSPropertyOp48
 70
     1
102
RTVSPropertyOp49
 70
     1
102
RTVSPropertyOp50
 70
     1
102
RTVSPropertyOp51
 70
     0
102
RTVSPropertyOp52
 70
     0
102
RTVSPropertyOp53
 70
     1
102
RTVSPropertyOp54
 70
     1
102
RTVSPropertyOp55
 70
     1
102
RTVSPropertyOp56
 70
     1
102
RTVSPropertyOp57
 70
     1
102
RTVSPost2010Prop28
280
     0
102
RTVSPost2010PropOp28
 70
     1
102
RTVSPost2010Prop29
280
     1
102
RTVSPost2010PropOp29
 70
     1
102
RTVSPost2010Prop30
280
     1
102
RTVSPost2010PropOp30
 70
     1
102
RTVSPost2010Prop31
280
     0
102
RTVSPost2010PropOp31
 70
     1
102
RTVSPost2010Prop32
280
     0
102
RTVSPost2010PropOp32
 70
     1
102
RTVSPost2010Prop33
280
     0
102
RTVSPost2010PropOp33
 70
     1
102
RTVSPost2010Prop34
280
     0
102
RTVSPost2010PropOp34
 70
     1
102
RTVSPost2010Prop35
280
     0
102
RTVSPost2010PropOp35
 70
     1
102
RTVSPost2010Prop36
280
     0
102
RTVSPost2010PropOp36
 70
     1
102
RTVSPost2010Prop37
 90
       50
102
RTVSPost2010PropOp37
 70
     1
102
RTVSPost2010Prop38
140
0.0
102
RTVSPost2010PropOp38
 70
     1
102
RTVSPost2010Prop39
140
1.0
102
RTVSPost2010PropOp39
 70
     1
102
RTVSPost2010Prop40
 90
        0
102
RTVSPost2010PropOp40
 70
     1
102
RTVSPost2010Prop41ColorIndex
 90
       18
102
RTVSPost2010Prop41ColorRGB
 90
        0
102
RTVSPost2010PropOp41
 70
     1
102
RTVSPost2010Prop42
 90
       50
102
RTVSPost2010PropOp42
 70
     1
102
RTVSPost2010Prop43
 90
        3
102
RTVSPost2010PropOp43
 70
     1
102
RTVSPost2010Prop44ColorIndex
 90
        5
102
RTVSPost2010Prop44ColorRGB
 90
      255
102
RTVSPost2010PropOp44
 70
     1
102
RTVSPost2010Prop45
280
     0
102
RTVSPost2010PropOp45
 70
     1
102
RTVSPost2010Prop46
 90
       50
102
RTVSPost2010PropOp46
 70
     1
102
RTVSPost2010Prop47
 90
       50
102
RTVSPost2010PropOp47
 70
     1
102
RTVSPost2010Prop48
 90
       50
102
RTVSPost2010PropOp48
 70
     1
102
RTVSPost2010Prop49
280
     0
102
RTVSPost2010PropOp49
 70
     1
102
RTVSPost2010Prop50
 90
       50
102
RTVSPost2010PropOp50
 70
     1
102
RTVSPost2010Prop51ColorIndex
 90
      256
102
RTVSPost2010Prop51ColorRGB
 90
-16777216
102
RTVSPost2010PropOp51
 70
     0
102
RTVSPost2010Prop52
140
1.0
102
RTVSPost2010PropOp52
 70
     0
102
RTVSPost2010Prop53
 90
        2
102
RTVSPost2010PropOp53
 70
     1
102
RTVSPost2010Prop54
  1
strokes_ogs.tif
102
RTVSPost2010PropOp54
 70
     1
102
RTVSPost2010Prop55
280
     0
102
RTVSPost2010PropOp55
 70
     1
102
RTVSPost2010Prop56
140
1.0
102
RTVSPost2010PropOp56
 70
     1
102
RTVSPost2010Prop57
140
1.0
102
RTVSPost2010PropOp57
 70
     1
  0
XRECORD
  5
250
102
{ACAD_REACTORS
330
24F
102
}
330
24F
100
AcDbXrecord
280
     1
102
RTVSPropertyOp0
 70
     0
102
RTVSPropertyOp1
 70
     0
102
RTVSPropertyOp2
 70
     0
102
RTVSPropertyOp3
 70
     0
102
RTVSPropertyOp4
 70
     0
102
RTVSPropertyOp5
 70
     0
102
RTVSPropertyOp6
 70
     0
102
RTVSPropertyOp7
 70
     0
102
RTVSPropertyOp8
 70
     0
102
RTVSPropertyOp9
 70
     0
102
RTVSPropertyOp10
 70
     0
102
RTVSPropertyOp11
 70
     0
102
RTVSPropertyOp12
 70
     0
102
RTVSPropertyOp13
 70
     0
102
RTVSPropertyOp14
 70
     2
102
RTVSPropertyOp15
 70
     0
102
RTVSPropertyOp16
 70
     0
102
RTVSPropertyOp17
 70
     0
102
RTVSPropertyOp18
 70
     0
102
RTVSPropertyOp19
 70
     0
102
RTVSPropertyOp20
 70
     0
102
RTVSPropertyOp21
 70
     0
102
RTVSPropertyOp22
 70
     0
102
RTVSPropertyOp23
 70
     0
102
RTVSPropertyOp24
 70
     0
102
RTVSPropertyOp25
 70
     0
102
RTVSPropertyOp26
 70
     0
102
RTVSPropertyOp27
 70
     0
102
RTVSPropertyOp28
 70
     0
102
RTVSPropertyOp29
 70
     0
102
RTVSPropertyOp30
 70
     0
102
RTVSPropertyOp31
 70
     0
102
RTVSPropertyOp32
 70
     0
102
RTVSPropertyOp33
 70
     0
102
RTVSPropertyOp34
 70
     0
102
RTVSPropertyOp35
 70
     0
102
RTVSPropertyOp36
 70
     0
102
RTVSPropertyOp37
 70
     0
102
RTVSPropertyOp38
 70
     0
102
RTVSPropertyOp39
 70
     0
102
RTVSPropertyOp40
 70
     0
102
RTVSPropertyOp41
 70
     0
102
RTVSPropertyOp42
 70
     0
102
RTVSPropertyOp43
 70
     0
102
RTVSPropertyOp44
 70
     0
102
RTVSPropertyOp45
 70
     0
102
RTVSPropertyOp46
 70
     0
102
RTVSPropertyOp47
 70
     0
102
RTVSPropertyOp48
 70
     0
102
RTVSPropertyOp49
 70
     0
102
RTVSPropertyOp50
 70
     0
102
RTVSPropertyOp51
 70
     0
102
RTVSPropertyOp52
 70
     0
102
RTVSPropertyOp53
 70
     0
102
RTVSPropertyOp54
 70
     0
102
RTVSPropertyOp55
 70
     0
102
RTVSPropertyOp56
 70
     0
102
RTVSPropertyOp57
 70
     0
102
RTVSPost2010Prop28
280
     0
102
RTVSPost2010PropOp28
 70
     0
102
RTVSPost2010Prop29
280
     1
102
RTVSPost2010PropOp29
 70
     0
102
RTVSPost2010Prop30
280
     1
102
RTVSPost2010PropOp30
 70
     0
102
RTVSPost2010Prop31
280
     0
102
RTVSPost2010PropOp31
 70
     0
102
RTVSPost2010Prop32
280
     0
102
RTVSPost2010PropOp32
 70
     0
102
RTVSPost2010Prop33
280
     0
102
RTVSPost2010PropOp33
 70
     0
102
RTVSPost2010Prop34
280
     0
102
RTVSPost2010PropOp34
 70
     0
102
RTVSPost2010Prop35
280
     0
102
RTVSPost2010PropOp35
 70
     0
102
RTVSPost2010Prop36
280
     0
102
RTVSPost2010PropOp36
 70
     0
102
RTVSPost2010Prop37
 90
       50
102
RTVSPost2010PropOp37
 70
     0
102
RTVSPost2010Prop38
140
0.0
102
RTVSPost2010PropOp38
 70
     0
102
RTVSPost2010Prop39
140
1.0
102
RTVSPost2010PropOp39
 70
     0
102
RTVSPost2010Prop40
 90
        0
102
RTVSPost2010PropOp40
 70
     0
102
RTVSPost2010Prop41ColorIndex
 90
       18
102
RTVSPost2010Prop41ColorRGB
 90
        0
102
RTVSPost2010PropOp41
 70
     0
102
RTVSPost2010Prop42
 90
       50
102
RTVSPost2010PropOp42
 70
     0
102
RTVSPost2010Prop43
 90
        3
102
RTVSPost2010PropOp43
 70
     0
102
RTVSPost2010Prop44ColorIndex
 90
        5
102
RTVSPost2010Prop44ColorRGB
 90
      255
102
RTVSPost2010PropOp44
 70
     0
102
RTVSPost2010Prop45
280
     0
102
RTVSPost2010PropOp45
 70
     0
102
RTVSPost2010Prop46
 90
       50
102
RTVSPost2010PropOp46
 70
     0
102
RTVSPost2010Prop47
 90
       50
102
RTVSPost2010PropOp47
 70
     0
102
RTVSPost2010Prop48
 90
       50
102
RTVSPost2010PropOp48
 70
     0
102
RTVSPost2010Prop49
280
     0
102
RTVSPost2010PropOp49
 70
     0
102
RTVSPost2010Prop50
 90
       50
102
RTVSPost2010PropOp50
 70
     0
102
RTVSPost2010Prop51ColorIndex
 90
      256
102
RTVSPost2010Prop51ColorRGB
 90
-16777216
102
RTVSPost2010PropOp51
 70
     0
102
RTVSPost2010Prop52
140
1.0
102
RTVSPost2010PropOp52
 70
     0
102
RTVSPost2010Prop53
 90
        2
102
RTVSPost2010PropOp53
 70
     0
102
RTVSPost2010Prop54
  1
strokes_ogs.tif
102
RTVSPost2010PropOp54
 70
     0
102
RTVSPost2010Prop55
280
     0
102
RTVSPost2010PropOp55
 70
     0
102
RTVSPost2010Prop56
140
1.0
102
RTVSPost2010PropOp56
 70
     0
102
RTVSPost2010Prop57
140
1.0
102
RTVSPost2010PropOp57
 70
     0
  0
XRECORD
  5
248
102
{ACAD_REACTORS
330
247
102
}
330
247
100
AcDbXrecord
280
     1
102
RTVSPropertyOp0
 70
     1
102
RTVSPropertyOp1
 70
     1
102
RTVSPropertyOp2
 70
     1
102
RTVSPropertyOp3
 70
     1
102
RTVSPropertyOp4
 70
     1
102
RTVSPropertyOp5
 70
     1
102
RTVSPropertyOp6
 70
     1
102
RTVSPropertyOp7
 70
     1
102
RTVSPropertyOp8
 70
     1
102
RTVSPropertyOp9
 70
     1
102
RTVSPropertyOp10
 70
     1
102
RTVSPropertyOp11
 70
     1
102
RTVSPropertyOp12
 70
     1
102
RTVSPropertyOp13
 70
     1
102
RTVSPropertyOp14
 70
     1
102
RTVSPropertyOp15
 70
     1
102
RTVSPropertyOp16
 70
     1
102
RTVSPropertyOp17
 70
     1
102
RTVSPropertyOp18
 70
     1
102
RTVSPropertyOp19
 70
     1
102
RTVSPropertyOp20
 70
     1
102
RTVSPropertyOp21
 70
     1
102
RTVSPropertyOp22
 70
     1
102
RTVSPropertyOp23
 70
     1
102
RTVSPropertyOp24
 70
     1
102
RTVSPropertyOp25
 70
     1
102
RTVSPropertyOp26
 70
     1
102
RTVSPropertyOp27
 70
     1
102
RTVSPropertyOp28
 70
     1
102
RTVSPropertyOp29
 70
     1
102
RTVSPropertyOp30
 70
     1
102
RTVSPropertyOp31
 70
     1
102
RTVSPropertyOp32
 70
     1
102
RTVSPropertyOp33
 70
     1
102
RTVSPropertyOp34
 70
     1
102
RTVSPropertyOp35
 70
     1
102
RTVSPropertyOp36
 70
     1
102
RTVSPropertyOp37
 70
     1
102
RTVSPropertyOp38
 70
     1
102
RTVSPropertyOp39
 70
     1
102
RTVSPropertyOp40
 70
     1
102
RTVSPropertyOp41
 70
     1
102
RTVSPropertyOp42
 70
     1
102
RTVSPropertyOp43
 70
     1
102
RTVSPropertyOp44
 70
     1
102
RTVSPropertyOp45
 70
     1
102
RTVSPropertyOp46
 70
     1
102
RTVSPropertyOp47
 70
     1
102
RTVSPropertyOp48
 70
     1
102
RTVSPropertyOp49
 70
     1
102
RTVSPropertyOp50
 70
     1
102
RTVSPropertyOp51
 70
     0
102
RTVSPropertyOp52
 70
     0
102
RTVSPropertyOp53
 70
     1
102
RTVSPropertyOp54
 70
     1
102
RTVSPropertyOp55
 70
     1
102
RTVSPropertyOp56
 70
     1
102
RTVSPropertyOp57
 70
     1
102
RTVSPost2010Prop28
280
     0
102
RTVSPost2010PropOp28
 70
     1
102
RTVSPost2010Prop29
280
     1
102
RTVSPost2010PropOp29
 70
     1
102
RTVSPost2010Prop30
280
     1
102
RTVSPost2010PropOp30
 70
     1
102
RTVSPost2010Prop31
280
     0
102
RTVSPost2010PropOp31
 70
     1
102
RTVSPost2010Prop32
280
     0
102
RTVSPost2010PropOp32
 70
     1
102
RTVSPost2010Prop33
280
     0
102
RTVSPost2010PropOp33
 70
     1
102
RTVSPost2010Prop34
280
     0
102
RTVSPost2010PropOp34
 70
     1
102
RTVSPost2010Prop35
280
     0
102
RTVSPost2010PropOp35
 70
     1
102
RTVSPost2010Prop36
280
     0
102
RTVSPost2010PropOp36
 70
     1
102
RTVSPost2010Prop37
 90
       50
102
RTVSPost2010PropOp37
 70
     1
102
RTVSPost2010Prop38
140
0.0
102
RTVSPost2010PropOp38
 70
     1
102
RTVSPost2010Prop39
140
1.0
102
RTVSPost2010PropOp39
 70
     1
102
RTVSPost2010Prop40
 90
        0
102
RTVSPost2010PropOp40
 70
     1
102
RTVSPost2010Prop41ColorIndex
 90
       18
102
RTVSPost2010Prop41ColorRGB
 90
        0
102
RTVSPost2010PropOp41
 70
     1
102
RTVSPost2010Prop42
 90
       50
102
RTVSPost2010PropOp42
 70
     1
102
RTVSPost2010Prop43
 90
        3
102
RTVSPost2010PropOp43
 70
     1
102
RTVSPost2010Prop44ColorIndex
 90
        5
102
RTVSPost2010Prop44ColorRGB
 90
      255
102
RTVSPost2010PropOp44
 70
     1
102
RTVSPost2010Prop45
280
     0
102
RTVSPost2010PropOp45
 70
     1
102
RTVSPost2010Prop46
 90
       50
102
RTVSPost2010PropOp46
 70
     1
102
RTVSPost2010Prop47
 90
       50
102
RTVSPost2010PropOp47
 70
     1
102
RTVSPost2010Prop48
 90
       50
102
RTVSPost2010PropOp48
 70
     1
102
RTVSPost2010Prop49
280
     0
102
RTVSPost2010PropOp49
 70
     1
102
RTVSPost2010Prop50
 90
       50
102
RTVSPost2010PropOp50
 70
     1
102
RTVSPost2010Prop51ColorIndex
 90
      256
102
RTVSPost2010Prop51ColorRGB
 90
-16777216
102
RTVSPost2010PropOp51
 70
     0
102
RTVSPost2010Prop52
140
1.0
102
RTVSPost2010PropOp52
 70
     0
102
RTVSPost2010Prop53
 90
        2
102
RTVSPost2010PropOp53
 70
     1
102
RTVSPost2010Prop54
  1
strokes_ogs.tif
102
RTVSPost2010PropOp54
 70
     1
102
RTVSPost2010Prop55
280
     0
102
RTVSPost2010PropOp55
 70
     1
102
RTVSPost2010Prop56
140
1.0
102
RTVSPost2010PropOp56
 70
     1
102
RTVSPost2010Prop57
140
1.0
102
RTVSPost2010PropOp57
 70
     1
  0
XRECORD
  5
22C
102
{ACAD_REACTORS
330
22B
102
}
330
22B
100
AcDbXrecord
280
     1
102
RTVSPropertyOp0
 70
     1
102
RTVSPropertyOp1
 70
     1
102
RTVSPropertyOp2
 70
     1
102
RTVSPropertyOp3
 70
     1
102
RTVSPropertyOp4
 70
     1
102
RTVSPropertyOp5
 70
     1
102
RTVSPropertyOp6
 70
     1
102
RTVSPropertyOp7
 70
     1
102
RTVSPropertyOp8
 70
     1
102
RTVSPropertyOp9
 70
     1
102
RTVSPropertyOp10
 70
     1
102
RTVSPropertyOp11
 70
     1
102
RTVSPropertyOp12
 70
     1
102
RTVSPropertyOp13
 70
     1
102
RTVSPropertyOp14
 70
     1
102
RTVSPropertyOp15
 70
     1
102
RTVSPropertyOp16
 70
     1
102
RTVSPropertyOp17
 70
     1
102
RTVSPropertyOp18
 70
     1
102
RTVSPropertyOp19
 70
     1
102
RTVSPropertyOp20
 70
     1
102
RTVSPropertyOp21
 70
     1
102
RTVSPropertyOp22
 70
     1
102
RTVSPropertyOp23
 70
     1
102
RTVSPropertyOp24
 70
     1
102
RTVSPropertyOp25
 70
     1
102
RTVSPropertyOp26
 70
     1
102
RTVSPropertyOp27
 70
     1
102
RTVSPropertyOp28
 70
     1
102
RTVSPropertyOp29
 70
     1
102
RTVSPropertyOp30
 70
     1
102
RTVSPropertyOp31
 70
     1
102
RTVSPropertyOp32
 70
     1
102
RTVSPropertyOp33
 70
     1
102
RTVSPropertyOp34
 70
     1
102
RTVSPropertyOp35
 70
     1
102
RTVSPropertyOp36
 70
     1
102
RTVSPropertyOp37
 70
     1
102
RTVSPropertyOp38
 70
     1
102
RTVSPropertyOp39
 70
     1
102
RTVSPropertyOp40
 70
     1
102
RTVSPropertyOp41
 70
     1
102
RTVSPropertyOp42
 70
     1
102
RTVSPropertyOp43
 70
     1
102
RTVSPropertyOp44
 70
     1
102
RTVSPropertyOp45
 70
     1
102
RTVSPropertyOp46
 70
     1
102
RTVSPropertyOp47
 70
     1
102
RTVSPropertyOp48
 70
     1
102
RTVSPropertyOp49
 70
     1
102
RTVSPropertyOp50
 70
     1
102
RTVSPropertyOp51
 70
     0
102
RTVSPropertyOp52
 70
     0
102
RTVSPropertyOp53
 70
     1
102
RTVSPropertyOp54
 70
     1
102
RTVSPropertyOp55
 70
     1
102
RTVSPropertyOp56
 70
     1
102
RTVSPropertyOp57
 70
     1
102
RTVSPost2010Prop28
280
     0
102
RTVSPost2010PropOp28
 70
     1
102
RTVSPost2010Prop29
280
     1
102
RTVSPost2010PropOp29
 70
     1
102
RTVSPost2010Prop30
280
     1
102
RTVSPost2010PropOp30
 70
     1
102
RTVSPost2010Prop31
280
     0
102
RTVSPost2010PropOp31
 70
     1
102
RTVSPost2010Prop32
280
     0
102
RTVSPost2010PropOp32
 70
     1
102
RTVSPost2010Prop33
280
     0
102
RTVSPost2010PropOp33
 70
     1
102
RTVSPost2010Prop34
280
     0
102
RTVSPost2010PropOp34
 70
     1
102
RTVSPost2010Prop35
280
     0
102
RTVSPost2010PropOp35
 70
     1
102
RTVSPost2010Prop36
280
     0
102
RTVSPost2010PropOp36
 70
     1
102
RTVSPost2010Prop37
 90
       50
102
RTVSPost2010PropOp37
 70
     1
102
RTVSPost2010Prop38
140
0.0
102
RTVSPost2010PropOp38
 70
     1
102
RTVSPost2010Prop39
140
1.0
102
RTVSPost2010PropOp39
 70
     1
102
RTVSPost2010Prop40
 90
        0
102
RTVSPost2010PropOp40
 70
     1
102
RTVSPost2010Prop41ColorIndex
 90
       18
102
RTVSPost2010Prop41ColorRGB
 90
        0
102
RTVSPost2010PropOp41
 70
     1
102
RTVSPost2010Prop42
 90
       50
102
RTVSPost2010PropOp42
 70
     1
102
RTVSPost2010Prop43
 90
        3
102
RTVSPost2010PropOp43
 70
     1
102
RTVSPost2010Prop44ColorIndex
 90
        5
102
RTVSPost2010Prop44ColorRGB
 90
      255
102
RTVSPost2010PropOp44
 70
     1
102
RTVSPost2010Prop45
280
     0
102
RTVSPost2010PropOp45
 70
     1
102
RTVSPost2010Prop46
 90
       50
102
RTVSPost2010PropOp46
 70
     1
102
RTVSPost2010Prop47
 90
       50
102
RTVSPost2010PropOp47
 70
     1
102
RTVSPost2010Prop48
 90
       50
102
RTVSPost2010PropOp48
 70
     1
102
RTVSPost2010Prop49
280
     0
102
RTVSPost2010PropOp49
 70
     1
102
RTVSPost2010Prop50
 90
       50
102
RTVSPost2010PropOp50
 70
     1
102
RTVSPost2010Prop51ColorIndex
 90
      256
102
RTVSPost2010Prop51ColorRGB
 90
-16777216
102
RTVSPost2010PropOp51
 70
     0
102
RTVSPost2010Prop52
140
1.0
102
RTVSPost2010PropOp52
 70
     0
102
RTVSPost2010Prop53
 90
        2
102
RTVSPost2010PropOp53
 70
     1
102
RTVSPost2010Prop54
  1
strokes_ogs.tif
102
RTVSPost2010PropOp54
 70
     1
102
RTVSPost2010Prop55
280
     0
102
RTVSPost2010PropOp55
 70
     1
102
RTVSPost2010Prop56
140
1.0
102
RTVSPost2010PropOp56
 70
     1
102
RTVSPost2010Prop57
140
1.0
102
RTVSPost2010PropOp57
 70
     1
  0
XRECORD
  5
22E
102
{ACAD_REACTORS
330
22D
102
}
330
22D
100
AcDbXrecord
280
     1
102
RTVSPropertyOp0
 70
     1
102
RTVSPropertyOp1
 70
     1
102
RTVSPropertyOp2
 70
     1
102
RTVSPropertyOp3
 70
     1
102
RTVSPropertyOp4
 70
     1
102
RTVSPropertyOp5
 70
     1
102
RTVSPropertyOp6
 70
     1
102
RTVSPropertyOp7
 70
     1
102
RTVSPropertyOp8
 70
     1
102
RTVSPropertyOp9
 70
     1
102
RTVSPropertyOp10
 70
     1
102
RTVSPropertyOp11
 70
     1
102
RTVSPropertyOp12
 70
     1
102
RTVSPropertyOp13
 70
     1
102
RTVSPropertyOp14
 70
     1
102
RTVSPropertyOp15
 70
     1
102
RTVSPropertyOp16
 70
     1
102
RTVSPropertyOp17
 70
     1
102
RTVSPropertyOp18
 70
     1
102
RTVSPropertyOp19
 70
     1
102
RTVSPropertyOp20
 70
     1
102
RTVSPropertyOp21
 70
     1
102
RTVSPropertyOp22
 70
     1
102
RTVSPropertyOp23
 70
     1
102
RTVSPropertyOp24
 70
     1
102
RTVSPropertyOp25
 70
     1
102
RTVSPropertyOp26
 70
     1
102
RTVSPropertyOp27
 70
     1
102
RTVSPropertyOp28
 70
     1
102
RTVSPropertyOp29
 70
     1
102
RTVSPropertyOp30
 70
     1
102
RTVSPropertyOp31
 70
     1
102
RTVSPropertyOp32
 70
     1
102
RTVSPropertyOp33
 70
     1
102
RTVSPropertyOp34
 70
     1
102
RTVSPropertyOp35
 70
     1
102
RTVSPropertyOp36
 70
     1
102
RTVSPropertyOp37
 70
     1
102
RTVSPropertyOp38
 70
     1
102
RTVSPropertyOp39
 70
     1
102
RTVSPropertyOp40
 70
     1
102
RTVSPropertyOp41
 70
     1
102
RTVSPropertyOp42
 70
     1
102
RTVSPropertyOp43
 70
     1
102
RTVSPropertyOp44
 70
     1
102
RTVSPropertyOp45
 70
     1
102
RTVSPropertyOp46
 70
     1
102
RTVSPropertyOp47
 70
     1
102
RTVSPropertyOp48
 70
     1
102
RTVSPropertyOp49
 70
     1
102
RTVSPropertyOp50
 70
     1
102
RTVSPropertyOp51
 70
     0
102
RTVSPropertyOp52
 70
     0
102
RTVSPropertyOp53
 70
     1
102
RTVSPropertyOp54
 70
     1
102
RTVSPropertyOp55
 70
     1
102
RTVSPropertyOp56
 70
     1
102
RTVSPropertyOp57
 70
     1
102
RTVSPost2010Prop28
280
     0
102
RTVSPost2010PropOp28
 70
     1
102
RTVSPost2010Prop29
280
     1
102
RTVSPost2010PropOp29
 70
     1
102
RTVSPost2010Prop30
280
     1
102
RTVSPost2010PropOp30
 70
     1
102
RTVSPost2010Prop31
280
     0
102
RTVSPost2010PropOp31
 70
     1
102
RTVSPost2010Prop32
280
     0
102
RTVSPost2010PropOp32
 70
     1
102
RTVSPost2010Prop33
280
     0
102
RTVSPost2010PropOp33
 70
     1
102
RTVSPost2010Prop34
280
     0
102
RTVSPost2010PropOp34
 70
     1
102
RTVSPost2010Prop35
280
     0
102
RTVSPost2010PropOp35
 70
     1
102
RTVSPost2010Prop36
280
     0
102
RTVSPost2010PropOp36
 70
     1
102
RTVSPost2010Prop37
 90
       50
102
RTVSPost2010PropOp37
 70
     1
102
RTVSPost2010Prop38
140
0.0
102
RTVSPost2010PropOp38
 70
     1
102
RTVSPost2010Prop39
140
1.0
102
RTVSPost2010PropOp39
 70
     1
102
RTVSPost2010Prop40
 90
        0
102
RTVSPost2010PropOp40
 70
     1
102
RTVSPost2010Prop41ColorIndex
 90
       18
102
RTVSPost2010Prop41ColorRGB
 90
        0
102
RTVSPost2010PropOp41
 70
     1
102
RTVSPost2010Prop42
 90
       50
102
RTVSPost2010PropOp42
 70
     1
102
RTVSPost2010Prop43
 90
        3
102
RTVSPost2010PropOp43
 70
     1
102
RTVSPost2010Prop44ColorIndex
 90
        5
102
RTVSPost2010Prop44ColorRGB
 90
      255
102
RTVSPost2010PropOp44
 70
     1
102
RTVSPost2010Prop45
280
     0
102
RTVSPost2010PropOp45
 70
     1
102
RTVSPost2010Prop46
 90
       50
102
RTVSPost2010PropOp46
 70
     1
102
RTVSPost2010Prop47
 90
       50
102
RTVSPost2010PropOp47
 70
     1
102
RTVSPost2010Prop48
 90
       50
102
RTVSPost2010PropOp48
 70
     1
102
RTVSPost2010Prop49
280
     0
102
RTVSPost2010PropOp49
 70
     1
102
RTVSPost2010Prop50
 90
       50
102
RTVSPost2010PropOp50
 70
     1
102
RTVSPost2010Prop51ColorIndex
 90
      256
102
RTVSPost2010Prop51ColorRGB
 90
-16777216
102
RTVSPost2010PropOp51
 70
     0
102
RTVSPost2010Prop52
140
1.0
102
RTVSPost2010PropOp52
 70
     0
102
RTVSPost2010Prop53
 90
        2
102
RTVSPost2010PropOp53
 70
     1
102
RTVSPost2010Prop54
  1
strokes_ogs.tif
102
RTVSPost2010PropOp54
 70
     1
102
RTVSPost2010Prop55
280
     0
102
RTVSPost2010PropOp55
 70
     1
102
RTVSPost2010Prop56
140
1.0
102
RTVSPost2010PropOp56
 70
     1
102
RTVSPost2010Prop57
140
1.0
102
RTVSPost2010PropOp57
 70
     1
  0
XRECORD
  5
230
102
{ACAD_REACTORS
330
22F
102
}
330
22F
100
AcDbXrecord
280
     1
102
RTVSPropertyOp0
 70
     1
102
RTVSPropertyOp1
 70
     1
102
RTVSPropertyOp2
 70
     1
102
RTVSPropertyOp3
 70
     1
102
RTVSPropertyOp4
 70
     1
102
RTVSPropertyOp5
 70
     1
102
RTVSPropertyOp6
 70
     1
102
RTVSPropertyOp7
 70
     1
102
RTVSPropertyOp8
 70
     1
102
RTVSPropertyOp9
 70
     1
102
RTVSPropertyOp10
 70
     1
102
RTVSPropertyOp11
 70
     1
102
RTVSPropertyOp12
 70
     1
102
RTVSPropertyOp13
 70
     1
102
RTVSPropertyOp14
 70
     1
102
RTVSPropertyOp15
 70
     1
102
RTVSPropertyOp16
 70
     1
102
RTVSPropertyOp17
 70
     1
102
RTVSPropertyOp18
 70
     1
102
RTVSPropertyOp19
 70
     1
102
RTVSPropertyOp20
 70
     1
102
RTVSPropertyOp21
 70
     1
102
RTVSPropertyOp22
 70
     1
102
RTVSPropertyOp23
 70
     1
102
RTVSPropertyOp24
 70
     1
102
RTVSPropertyOp25
 70
     1
102
RTVSPropertyOp26
 70
     1
102
RTVSPropertyOp27
 70
     1
102
RTVSPropertyOp28
 70
     1
102
RTVSPropertyOp29
 70
     1
102
RTVSPropertyOp30
 70
     1
102
RTVSPropertyOp31
 70
     1
102
RTVSPropertyOp32
 70
     1
102
RTVSPropertyOp33
 70
     1
102
RTVSPropertyOp34
 70
     1
102
RTVSPropertyOp35
 70
     1
102
RTVSPropertyOp36
 70
     1
102
RTVSPropertyOp37
 70
     1
102
RTVSPropertyOp38
 70
     1
102
RTVSPropertyOp39
 70
     1
102
RTVSPropertyOp40
 70
     1
102
RTVSPropertyOp41
 70
     1
102
RTVSPropertyOp42
 70
     1
102
RTVSPropertyOp43
 70
     1
102
RTVSPropertyOp44
 70
     1
102
RTVSPropertyOp45
 70
     1
102
RTVSPropertyOp46
 70
     1
102
RTVSPropertyOp47
 70
     1
102
RTVSPropertyOp48
 70
     1
102
RTVSPropertyOp49
 70
     1
102
RTVSPropertyOp50
 70
     1
102
RTVSPropertyOp51
 70
     0
102
RTVSPropertyOp52
 70
     0
102
RTVSPropertyOp53
 70
     1
102
RTVSPropertyOp54
 70
     1
102
RTVSPropertyOp55
 70
     1
102
RTVSPropertyOp56
 70
     1
102
RTVSPropertyOp57
 70
     1
102
RTVSPost2010Prop28
280
     0
102
RTVSPost2010PropOp28
 70
     1
102
RTVSPost2010Prop29
280
     1
102
RTVSPost2010PropOp29
 70
     1
102
RTVSPost2010Prop30
280
     1
102
RTVSPost2010PropOp30
 70
     1
102
RTVSPost2010Prop31
280
     0
102
RTVSPost2010PropOp31
 70
     1
102
RTVSPost2010Prop32
280
     0
102
RTVSPost2010PropOp32
 70
     1
102
RTVSPost2010Prop33
280
     0
102
RTVSPost2010PropOp33
 70
     1
102
RTVSPost2010Prop34
280
     0
102
RTVSPost2010PropOp34
 70
     1
102
RTVSPost2010Prop35
280
     0
102
RTVSPost2010PropOp35
 70
     1
102
RTVSPost2010Prop36
280
     0
102
RTVSPost2010PropOp36
 70
     1
102
RTVSPost2010Prop37
 90
       50
102
RTVSPost2010PropOp37
 70
     1
102
RTVSPost2010Prop38
140
0.0
102
RTVSPost2010PropOp38
 70
     1
102
RTVSPost2010Prop39
140
1.0
102
RTVSPost2010PropOp39
 70
     1
102
RTVSPost2010Prop40
 90
        0
102
RTVSPost2010PropOp40
 70
     1
102
RTVSPost2010Prop41ColorIndex
 90
       18
102
RTVSPost2010Prop41ColorRGB
 90
        0
102
RTVSPost2010PropOp41
 70
     1
102
RTVSPost2010Prop42
 90
       50
102
RTVSPost2010PropOp42
 70
     1
102
RTVSPost2010Prop43
 90
        3
102
RTVSPost2010PropOp43
 70
     1
102
RTVSPost2010Prop44ColorIndex
 90
        5
102
RTVSPost2010Prop44ColorRGB
 90
      255
102
RTVSPost2010PropOp44
 70
     1
102
RTVSPost2010Prop45
280
     0
102
RTVSPost2010PropOp45
 70
     1
102
RTVSPost2010Prop46
 90
       50
102
RTVSPost2010PropOp46
 70
     1
102
RTVSPost2010Prop47
 90
       50
102
RTVSPost2010PropOp47
 70
     1
102
RTVSPost2010Prop48
 90
       50
102
RTVSPost2010PropOp48
 70
     1
102
RTVSPost2010Prop49
280
     0
102
RTVSPost2010PropOp49
 70
     1
102
RTVSPost2010Prop50
 90
       50
102
RTVSPost2010PropOp50
 70
     1
102
RTVSPost2010Prop51ColorIndex
 90
      256
102
RTVSPost2010Prop51ColorRGB
 90
-16777216
102
RTVSPost2010PropOp51
 70
     0
102
RTVSPost2010Prop52
140
1.0
102
RTVSPost2010PropOp52
 70
     0
102
RTVSPost2010Prop53
 90
        2
102
RTVSPost2010PropOp53
 70
     1
102
RTVSPost2010Prop54
  1
strokes_ogs.tif
102
RTVSPost2010PropOp54
 70
     1
102
RTVSPost2010Prop55
280
     0
102
RTVSPost2010PropOp55
 70
     1
102
RTVSPost2010Prop56
140
1.0
102
RTVSPost2010PropOp56
 70
     1
102
RTVSPost2010Prop57
140
1.0
102
RTVSPost2010PropOp57
 70
     1
  0
XRECORD
  5
232
102
{ACAD_REACTORS
330
231
102
}
330
231
100
AcDbXrecord
280
     1
102
RTVSPropertyOp0
 70
     1
102
RTVSPropertyOp1
 70
     1
102
RTVSPropertyOp2
 70
     1
102
RTVSPropertyOp3
 70
     1
102
RTVSPropertyOp4
 70
     1
102
RTVSPropertyOp5
 70
     1
102
RTVSPropertyOp6
 70
     1
102
RTVSPropertyOp7
 70
     1
102
RTVSPropertyOp8
 70
     1
102
RTVSPropertyOp9
 70
     1
102
RTVSPropertyOp10
 70
     1
102
RTVSPropertyOp11
 70
     1
102
RTVSPropertyOp12
 70
     1
102
RTVSPropertyOp13
 70
     1
102
RTVSPropertyOp14
 70
     1
102
RTVSPropertyOp15
 70
     1
102
RTVSPropertyOp16
 70
     1
102
RTVSPropertyOp17
 70
     1
102
RTVSPropertyOp18
 70
     1
102
RTVSPropertyOp19
 70
     1
102
RTVSPropertyOp20
 70
     1
102
RTVSPropertyOp21
 70
     1
102
RTVSPropertyOp22
 70
     1
102
RTVSPropertyOp23
 70
     1
102
RTVSPropertyOp24
 70
     1
102
RTVSPropertyOp25
 70
     1
102
RTVSPropertyOp26
 70
     1
102
RTVSPropertyOp27
 70
     1
102
RTVSPropertyOp28
 70
     1
102
RTVSPropertyOp29
 70
     1
102
RTVSPropertyOp30
 70
     1
102
RTVSPropertyOp31
 70
     1
102
RTVSPropertyOp32
 70
     1
102
RTVSPropertyOp33
 70
     1
102
RTVSPropertyOp34
 70
     1
102
RTVSPropertyOp35
 70
     1
102
RTVSPropertyOp36
 70
     1
102
RTVSPropertyOp37
 70
     1
102
RTVSPropertyOp38
 70
     1
102
RTVSPropertyOp39
 70
     1
102
RTVSPropertyOp40
 70
     1
102
RTVSPropertyOp41
 70
     1
102
RTVSPropertyOp42
 70
     1
102
RTVSPropertyOp43
 70
     1
102
RTVSPropertyOp44
 70
     1
102
RTVSPropertyOp45
 70
     1
102
RTVSPropertyOp46
 70
     1
102
RTVSPropertyOp47
 70
     1
102
RTVSPropertyOp48
 70
     1
102
RTVSPropertyOp49
 70
     1
102
RTVSPropertyOp50
 70
     1
102
RTVSPropertyOp51
 70
     0
102
RTVSPropertyOp52
 70
     0
102
RTVSPropertyOp53
 70
     1
102
RTVSPropertyOp54
 70
     1
102
RTVSPropertyOp55
 70
     1
102
RTVSPropertyOp56
 70
     1
102
RTVSPropertyOp57
 70
     1
102
RTVSPost2010Prop28
280
     0
102
RTVSPost2010PropOp28
 70
     1
102
RTVSPost2010Prop29
280
     1
102
RTVSPost2010PropOp29
 70
     1
102
RTVSPost2010Prop30
280
     1
102
RTVSPost2010PropOp30
 70
     1
102
RTVSPost2010Prop31
280
     0
102
RTVSPost2010PropOp31
 70
     1
102
RTVSPost2010Prop32
280
     0
102
RTVSPost2010PropOp32
 70
     1
102
RTVSPost2010Prop33
280
     0
102
RTVSPost2010PropOp33
 70
     1
102
RTVSPost2010Prop34
280
     0
102
RTVSPost2010PropOp34
 70
     1
102
RTVSPost2010Prop35
280
     0
102
RTVSPost2010PropOp35
 70
     1
102
RTVSPost2010Prop36
280
     0
102
RTVSPost2010PropOp36
 70
     1
102
RTVSPost2010Prop37
 90
       50
102
RTVSPost2010PropOp37
 70
     1
102
RTVSPost2010Prop38
140
0.0
102
RTVSPost2010PropOp38
 70
     1
102
RTVSPost2010Prop39
140
1.0
102
RTVSPost2010PropOp39
 70
     1
102
RTVSPost2010Prop40
 90
        0
102
RTVSPost2010PropOp40
 70
     1
102
RTVSPost2010Prop41ColorIndex
 90
       18
102
RTVSPost2010Prop41ColorRGB
 90
        0
102
RTVSPost2010PropOp41
 70
     1
102
RTVSPost2010Prop42
 90
       50
102
RTVSPost2010PropOp42
 70
     1
102
RTVSPost2010Prop43
 90
        3
102
RTVSPost2010PropOp43
 70
     1
102
RTVSPost2010Prop44ColorIndex
 90
        5
102
RTVSPost2010Prop44ColorRGB
 90
      255
102
RTVSPost2010PropOp44
 70
     1
102
RTVSPost2010Prop45
280
     0
102
RTVSPost2010PropOp45
 70
     1
102
RTVSPost2010Prop46
 90
       50
102
RTVSPost2010PropOp46
 70
     1
102
RTVSPost2010Prop47
 90
       50
102
RTVSPost2010PropOp47
 70
     1
102
RTVSPost2010Prop48
 90
       50
102
RTVSPost2010PropOp48
 70
     1
102
RTVSPost2010Prop49
280
     0
102
RTVSPost2010PropOp49
 70
     1
102
RTVSPost2010Prop50
 90
       50
102
RTVSPost2010PropOp50
 70
     1
102
RTVSPost2010Prop51ColorIndex
 90
      256
102
RTVSPost2010Prop51ColorRGB
 90
-16777216
102
RTVSPost2010PropOp51
 70
     0
102
RTVSPost2010Prop52
140
1.0
102
RTVSPost2010PropOp52
 70
     0
102
RTVSPost2010Prop53
 90
        2
102
RTVSPost2010PropOp53
 70
     1
102
RTVSPost2010Prop54
  1
strokes_ogs.tif
102
RTVSPost2010PropOp54
 70
     1
102
RTVSPost2010Prop55
280
     0
102
RTVSPost2010PropOp55
 70
     1
102
RTVSPost2010Prop56
140
1.0
102
RTVSPost2010PropOp56
 70
     1
102
RTVSPost2010Prop57
140
1.0
102
RTVSPost2010PropOp57
 70
     1
  0
XRECORD
  5
238
102
{ACAD_REACTORS
330
237
102
}
330
237
100
AcDbXrecord
280
     1
102
RTVSPropertyOp0
 70
     1
102
RTVSPropertyOp1
 70
     1
102
RTVSPropertyOp2
 70
     1
102
RTVSPropertyOp3
 70
     1
102
RTVSPropertyOp4
 70
     1
102
RTVSPropertyOp5
 70
     1
102
RTVSPropertyOp6
 70
     1
102
RTVSPropertyOp7
 70
     1
102
RTVSPropertyOp8
 70
     1
102
RTVSPropertyOp9
 70
     1
102
RTVSPropertyOp10
 70
     1
102
RTVSPropertyOp11
 70
     1
102
RTVSPropertyOp12
 70
     1
102
RTVSPropertyOp13
 70
     1
102
RTVSPropertyOp14
 70
     1
102
RTVSPropertyOp15
 70
     1
102
RTVSPropertyOp16
 70
     1
102
RTVSPropertyOp17
 70
     1
102
RTVSPropertyOp18
 70
     1
102
RTVSPropertyOp19
 70
     1
102
RTVSPropertyOp20
 70
     1
102
RTVSPropertyOp21
 70
     1
102
RTVSPropertyOp22
 70
     1
102
RTVSPropertyOp23
 70
     1
102
RTVSPropertyOp24
 70
     1
102
RTVSPropertyOp25
 70
     1
102
RTVSPropertyOp26
 70
     1
102
RTVSPropertyOp27
 70
     1
102
RTVSPropertyOp28
 70
     1
102
RTVSPropertyOp29
 70
     1
102
RTVSPropertyOp30
 70
     1
102
RTVSPropertyOp31
 70
     1
102
RTVSPropertyOp32
 70
     1
102
RTVSPropertyOp33
 70
     1
102
RTVSPropertyOp34
 70
     1
102
RTVSPropertyOp35
 70
     1
102
RTVSPropertyOp36
 70
     1
102
RTVSPropertyOp37
 70
     1
102
RTVSPropertyOp38
 70
     1
102
RTVSPropertyOp39
 70
     1
102
RTVSPropertyOp40
 70
     1
102
RTVSPropertyOp41
 70
     1
102
RTVSPropertyOp42
 70
     1
102
RTVSPropertyOp43
 70
     1
102
RTVSPropertyOp44
 70
     1
102
RTVSPropertyOp45
 70
     1
102
RTVSPropertyOp46
 70
     1
102
RTVSPropertyOp47
 70
     1
102
RTVSPropertyOp48
 70
     1
102
RTVSPropertyOp49
 70
     1
102
RTVSPropertyOp50
 70
     1
102
RTVSPropertyOp51
 70
     0
102
RTVSPropertyOp52
 70
     0
102
RTVSPropertyOp53
 70
     1
102
RTVSPropertyOp54
 70
     1
102
RTVSPropertyOp55
 70
     1
102
RTVSPropertyOp56
 70
     1
102
RTVSPropertyOp57
 70
     1
102
RTVSPost2010Prop28
280
     0
102
RTVSPost2010PropOp28
 70
     1
102
RTVSPost2010Prop29
280
     1
102
RTVSPost2010PropOp29
 70
     1
102
RTVSPost2010Prop30
280
     1
102
RTVSPost2010PropOp30
 70
     1
102
RTVSPost2010Prop31
280
     0
102
RTVSPost2010PropOp31
 70
     1
102
RTVSPost2010Prop32
280
     0
102
RTVSPost2010PropOp32
 70
     1
102
RTVSPost2010Prop33
280
     0
102
RTVSPost2010PropOp33
 70
     1
102
RTVSPost2010Prop34
280
     0
102
RTVSPost2010PropOp34
 70
     1
102
RTVSPost2010Prop35
280
     0
102
RTVSPost2010PropOp35
 70
     1
102
RTVSPost2010Prop36
280
     0
102
RTVSPost2010PropOp36
 70
     1
102
RTVSPost2010Prop37
 90
       50
102
RTVSPost2010PropOp37
 70
     1
102
RTVSPost2010Prop38
140
0.0
102
RTVSPost2010PropOp38
 70
     1
102
RTVSPost2010Prop39
140
1.0
102
RTVSPost2010PropOp39
 70
     1
102
RTVSPost2010Prop40
 90
        0
102
RTVSPost2010PropOp40
 70
     1
102
RTVSPost2010Prop41ColorIndex
 90
       18
102
RTVSPost2010Prop41ColorRGB
 90
        0
102
RTVSPost2010PropOp41
 70
     1
102
RTVSPost2010Prop42
 90
       50
102
RTVSPost2010PropOp42
 70
     1
102
RTVSPost2010Prop43
 90
        3
102
RTVSPost2010PropOp43
 70
     1
102
RTVSPost2010Prop44ColorIndex
 90
        5
102
RTVSPost2010Prop44ColorRGB
 90
      255
102
RTVSPost2010PropOp44
 70
     1
102
RTVSPost2010Prop45
280
     0
102
RTVSPost2010PropOp45
 70
     1
102
RTVSPost2010Prop46
 90
       50
102
RTVSPost2010PropOp46
 70
     1
102
RTVSPost2010Prop47
 90
       50
102
RTVSPost2010PropOp47
 70
     1
102
RTVSPost2010Prop48
 90
       50
102
RTVSPost2010PropOp48
 70
     1
102
RTVSPost2010Prop49
280
     0
102
RTVSPost2010PropOp49
 70
     1
102
RTVSPost2010Prop50
 90
       50
102
RTVSPost2010PropOp50
 70
     1
102
RTVSPost2010Prop51ColorIndex
 90
      256
102
RTVSPost2010Prop51ColorRGB
 90
-16777216
102
RTVSPost2010PropOp51
 70
     0
102
RTVSPost2010Prop52
140
1.0
102
RTVSPost2010PropOp52
 70
     0
102
RTVSPost2010Prop53
 90
        2
102
RTVSPost2010PropOp53
 70
     1
102
RTVSPost2010Prop54
  1
strokes_ogs.tif
102
RTVSPost2010PropOp54
 70
     1
102
RTVSPost2010Prop55
280
     0
102
RTVSPost2010PropOp55
 70
     1
102
RTVSPost2010Prop56
140
1.0
102
RTVSPost2010PropOp56
 70
     1
102
RTVSPost2010Prop57
140
1.0
102
RTVSPost2010PropOp57
 70
     1
  0
XRECORD
  5
24C
102
{ACAD_REACTORS
330
24B
102
}
330
24B
100
AcDbXrecord
280
     1
102
RTVSPropertyOp0
 70
     0
102
RTVSPropertyOp1
 70
     0
102
RTVSPropertyOp2
 70
     0
102
RTVSPropertyOp3
 70
     0
102
RTVSPropertyOp4
 70
     0
102
RTVSPropertyOp5
 70
     0
102
RTVSPropertyOp6
 70
     0
102
RTVSPropertyOp7
 70
     0
102
RTVSPropertyOp8
 70
     0
102
RTVSPropertyOp9
 70
     0
102
RTVSPropertyOp10
 70
     0
102
RTVSPropertyOp11
 70
     0
102
RTVSPropertyOp12
 70
     0
102
RTVSPropertyOp13
 70
     0
102
RTVSPropertyOp14
 70
     2
102
RTVSPropertyOp15
 70
     0
102
RTVSPropertyOp16
 70
     0
102
RTVSPropertyOp17
 70
     0
102
RTVSPropertyOp18
 70
     0
102
RTVSPropertyOp19
 70
     0
102
RTVSPropertyOp20
 70
     0
102
RTVSPropertyOp21
 70
     0
102
RTVSPropertyOp22
 70
     0
102
RTVSPropertyOp23
 70
     0
102
RTVSPropertyOp24
 70
     0
102
RTVSPropertyOp25
 70
     0
102
RTVSPropertyOp26
 70
     0
102
RTVSPropertyOp27
 70
     0
102
RTVSPropertyOp28
 70
     0
102
RTVSPropertyOp29
 70
     0
102
RTVSPropertyOp30
 70
     0
102
RTVSPropertyOp31
 70
     0
102
RTVSPropertyOp32
 70
     0
102
RTVSPropertyOp33
 70
     0
102
RTVSPropertyOp34
 70
     0
102
RTVSPropertyOp35
 70
     0
102
RTVSPropertyOp36
 70
     0
102
RTVSPropertyOp37
 70
     0
102
RTVSPropertyOp38
 70
     0
102
RTVSPropertyOp39
 70
     0
102
RTVSPropertyOp40
 70
     0
102
RTVSPropertyOp41
 70
     0
102
RTVSPropertyOp42
 70
     0
102
RTVSPropertyOp43
 70
     0
102
RTVSPropertyOp44
 70
     0
102
RTVSPropertyOp45
 70
     0
102
RTVSPropertyOp46
 70
     0
102
RTVSPropertyOp47
 70
     0
102
RTVSPropertyOp48
 70
     0
102
RTVSPropertyOp49
 70
     0
102
RTVSPropertyOp50
 70
     0
102
RTVSPropertyOp51
 70
     0
102
RTVSPropertyOp52
 70
     0
102
RTVSPropertyOp53
 70
     0
102
RTVSPropertyOp54
 70
     0
102
RTVSPropertyOp55
 70
     0
102
RTVSPropertyOp56
 70
     0
102
RTVSPropertyOp57
 70
     0
102
RTVSPost2010Prop28
280
     0
102
RTVSPost2010PropOp28
 70
     0
102
RTVSPost2010Prop29
280
     1
102
RTVSPost2010PropOp29
 70
     0
102
RTVSPost2010Prop30
280
     1
102
RTVSPost2010PropOp30
 70
     0
102
RTVSPost2010Prop31
280
     0
102
RTVSPost2010PropOp31
 70
     0
102
RTVSPost2010Prop32
280
     0
102
RTVSPost2010PropOp32
 70
     0
102
RTVSPost2010Prop33
280
     0
102
RTVSPost2010PropOp33
 70
     0
102
RTVSPost2010Prop34
280
     0
102
RTVSPost2010PropOp34
 70
     0
102
RTVSPost2010Prop35
280
     0
102
RTVSPost2010PropOp35
 70
     0
102
RTVSPost2010Prop36
280
     0
102
RTVSPost2010PropOp36
 70
     0
102
RTVSPost2010Prop37
 90
       50
102
RTVSPost2010PropOp37
 70
     0
102
RTVSPost2010Prop38
140
0.0
102
RTVSPost2010PropOp38
 70
     0
102
RTVSPost2010Prop39
140
1.0
102
RTVSPost2010PropOp39
 70
     0
102
RTVSPost2010Prop40
 90
        0
102
RTVSPost2010PropOp40
 70
     0
102
RTVSPost2010Prop41ColorIndex
 90
       18
102
RTVSPost2010Prop41ColorRGB
 90
        0
102
RTVSPost2010PropOp41
 70
     0
102
RTVSPost2010Prop42
 90
       50
102
RTVSPost2010PropOp42
 70
     0
102
RTVSPost2010Prop43
 90
        3
102
RTVSPost2010PropOp43
 70
     0
102
RTVSPost2010Prop44ColorIndex
 90
        5
102
RTVSPost2010Prop44ColorRGB
 90
      255
102
RTVSPost2010PropOp44
 70
     0
102
RTVSPost2010Prop45
280
     0
102
RTVSPost2010PropOp45
 70
     0
102
RTVSPost2010Prop46
 90
       50
102
RTVSPost2010PropOp46
 70
     0
102
RTVSPost2010Prop47
 90
       50
102
RTVSPost2010PropOp47
 70
     0
102
RTVSPost2010Prop48
 90
       50
102
RTVSPost2010PropOp48
 70
     0
102
RTVSPost2010Prop49
280
     0
102
RTVSPost2010PropOp49
 70
     0
102
RTVSPost2010Prop50
 90
       50
102
RTVSPost2010PropOp50
 70
     0
102
RTVSPost2010Prop51ColorIndex
 90
      256
102
RTVSPost2010Prop51ColorRGB
 90
-16777216
102
RTVSPost2010PropOp51
 70
     0
102
RTVSPost2010Prop52
140
1.0
102
RTVSPost2010PropOp52
 70
     0
102
RTVSPost2010Prop53
 90
        2
102
RTVSPost2010PropOp53
 70
     0
102
RTVSPost2010Prop54
  1
strokes_ogs.tif
102
RTVSPost2010PropOp54
 70
     0
102
RTVSPost2010Prop55
280
     0
102
RTVSPost2010PropOp55
 70
     0
102
RTVSPost2010Prop56
140
1.0
102
RTVSPost2010PropOp56
 70
     0
102
RTVSPost2010Prop57
140
1.0
102
RTVSPost2010PropOp57
 70
     0
  0
XRECORD
  5
246
102
{ACAD_REACTORS
330
245
102
}
330
245
100
AcDbXrecord
280
     1
102
RTVSPropertyOp0
 70
     1
102
RTVSPropertyOp1
 70
     1
102
RTVSPropertyOp2
 70
     1
102
RTVSPropertyOp3
 70
     1
102
RTVSPropertyOp4
 70
     1
102
RTVSPropertyOp5
 70
     1
102
RTVSPropertyOp6
 70
     1
102
RTVSPropertyOp7
 70
     1
102
RTVSPropertyOp8
 70
     1
102
RTVSPropertyOp9
 70
     1
102
RTVSPropertyOp10
 70
     1
102
RTVSPropertyOp11
 70
     1
102
RTVSPropertyOp12
 70
     1
102
RTVSPropertyOp13
 70
     1
102
RTVSPropertyOp14
 70
     1
102
RTVSPropertyOp15
 70
     1
102
RTVSPropertyOp16
 70
     1
102
RTVSPropertyOp17
 70
     1
102
RTVSPropertyOp18
 70
     1
102
RTVSPropertyOp19
 70
     1
102
RTVSPropertyOp20
 70
     1
102
RTVSPropertyOp21
 70
     1
102
RTVSPropertyOp22
 70
     1
102
RTVSPropertyOp23
 70
     1
102
RTVSPropertyOp24
 70
     1
102
RTVSPropertyOp25
 70
     1
102
RTVSPropertyOp26
 70
     1
102
RTVSPropertyOp27
 70
     1
102
RTVSPropertyOp28
 70
     1
102
RTVSPropertyOp29
 70
     1
102
RTVSPropertyOp30
 70
     1
102
RTVSPropertyOp31
 70
     1
102
RTVSPropertyOp32
 70
     1
102
RTVSPropertyOp33
 70
     1
102
RTVSPropertyOp34
 70
     1
102
RTVSPropertyOp35
 70
     1
102
RTVSPropertyOp36
 70
     1
102
RTVSPropertyOp37
 70
     1
102
RTVSPropertyOp38
 70
     1
102
RTVSPropertyOp39
 70
     1
102
RTVSPropertyOp40
 70
     1
102
RTVSPropertyOp41
 70
     1
102
RTVSPropertyOp42
 70
     1
102
RTVSPropertyOp43
 70
     1
102
RTVSPropertyOp44
 70
     1
102
RTVSPropertyOp45
 70
     1
102
RTVSPropertyOp46
 70
     1
102
RTVSPropertyOp47
 70
     1
102
RTVSPropertyOp48
 70
     1
102
RTVSPropertyOp49
 70
     1
102
RTVSPropertyOp50
 70
     1
102
RTVSPropertyOp51
 70
     0
102
RTVSPropertyOp52
 70
     0
102
RTVSPropertyOp53
 70
     1
102
RTVSPropertyOp54
 70
     1
102
RTVSPropertyOp55
 70
     1
102
RTVSPropertyOp56
 70
     1
102
RTVSPropertyOp57
 70
     1
102
RTVSPost2010Prop28
280
     0
102
RTVSPost2010PropOp28
 70
     1
102
RTVSPost2010Prop29
280
     1
102
RTVSPost2010PropOp29
 70
     1
102
RTVSPost2010Prop30
280
     1
102
RTVSPost2010PropOp30
 70
     1
102
RTVSPost2010Prop31
280
     0
102
RTVSPost2010PropOp31
 70
     1
102
RTVSPost2010Prop32
280
     0
102
RTVSPost2010PropOp32
 70
     1
102
RTVSPost2010Prop33
280
     0
102
RTVSPost2010PropOp33
 70
     1
102
RTVSPost2010Prop34
280
     0
102
RTVSPost2010PropOp34
 70
     1
102
RTVSPost2010Prop35
280
     0
102
RTVSPost2010PropOp35
 70
     1
102
RTVSPost2010Prop36
280
     0
102
RTVSPost2010PropOp36
 70
     1
102
RTVSPost2010Prop37
 90
       50
102
RTVSPost2010PropOp37
 70
     1
102
RTVSPost2010Prop38
140
0.0
102
RTVSPost2010PropOp38
 70
     1
102
RTVSPost2010Prop39
140
1.0
102
RTVSPost2010PropOp39
 70
     1
102
RTVSPost2010Prop40
 90
        0
102
RTVSPost2010PropOp40
 70
     1
102
RTVSPost2010Prop41ColorIndex
 90
       18
102
RTVSPost2010Prop41ColorRGB
 90
        0
102
RTVSPost2010PropOp41
 70
     1
102
RTVSPost2010Prop42
 90
       50
102
RTVSPost2010PropOp42
 70
     1
102
RTVSPost2010Prop43
 90
        3
102
RTVSPost2010PropOp43
 70
     1
102
RTVSPost2010Prop44ColorIndex
 90
        5
102
RTVSPost2010Prop44ColorRGB
 90
      255
102
RTVSPost2010PropOp44
 70
     1
102
RTVSPost2010Prop45
280
     0
102
RTVSPost2010PropOp45
 70
     1
102
RTVSPost2010Prop46
 90
       50
102
RTVSPost2010PropOp46
 70
     1
102
RTVSPost2010Prop47
 90
       50
102
RTVSPost2010PropOp47
 70
     1
102
RTVSPost2010Prop48
 90
       50
102
RTVSPost2010PropOp48
 70
     1
102
RTVSPost2010Prop49
280
     0
102
RTVSPost2010PropOp49
 70
     1
102
RTVSPost2010Prop50
 90
       50
102
RTVSPost2010PropOp50
 70
     1
102
RTVSPost2010Prop51ColorIndex
 90
      256
102
RTVSPost2010Prop51ColorRGB
 90
-16777216
102
RTVSPost2010PropOp51
 70
     0
102
RTVSPost2010Prop52
140
1.0
102
RTVSPost2010PropOp52
 70
     0
102
RTVSPost2010Prop53
 90
        2
102
RTVSPost2010PropOp53
 70
     1
102
RTVSPost2010Prop54
  1
strokes_ogs.tif
102
RTVSPost2010PropOp54
 70
     1
102
RTVSPost2010Prop55
280
     0
102
RTVSPost2010PropOp55
 70
     1
102
RTVSPost2010Prop56
140
1.0
102
RTVSPost2010PropOp56
 70
     1
102
RTVSPost2010Prop57
140
1.0
102
RTVSPost2010PropOp57
 70
     1
  0
XRECORD
  5
24E
102
{ACAD_REACTORS
330
24D
102
}
330
24D
100
AcDbXrecord
280
     1
102
RTVSPropertyOp0
 70
     0
102
RTVSPropertyOp1
 70
     0
102
RTVSPropertyOp2
 70
     0
102
RTVSPropertyOp3
 70
     0
102
RTVSPropertyOp4
 70
     0
102
RTVSPropertyOp5
 70
     0
102
RTVSPropertyOp6
 70
     0
102
RTVSPropertyOp7
 70
     0
102
RTVSPropertyOp8
 70
     0
102
RTVSPropertyOp9
 70
     0
102
RTVSPropertyOp10
 70
     0
102
RTVSPropertyOp11
 70
     0
102
RTVSPropertyOp12
 70
     0
102
RTVSPropertyOp13
 70
     0
102
RTVSPropertyOp14
 70
     2
102
RTVSPropertyOp15
 70
     0
102
RTVSPropertyOp16
 70
     0
102
RTVSPropertyOp17
 70
     0
102
RTVSPropertyOp18
 70
     0
102
RTVSPropertyOp19
 70
     0
102
RTVSPropertyOp20
 70
     0
102
RTVSPropertyOp21
 70
     0
102
RTVSPropertyOp22
 70
     0
102
RTVSPropertyOp23
 70
     0
102
RTVSPropertyOp24
 70
     0
102
RTVSPropertyOp25
 70
     0
102
RTVSPropertyOp26
 70
     0
102
RTVSPropertyOp27
 70
     0
102
RTVSPropertyOp28
 70
     0
102
RTVSPropertyOp29
 70
     0
102
RTVSPropertyOp30
 70
     0
102
RTVSPropertyOp31
 70
     0
102
RTVSPropertyOp32
 70
     0
102
RTVSPropertyOp33
 70
     0
102
RTVSPropertyOp34
 70
     0
102
RTVSPropertyOp35
 70
     0
102
RTVSPropertyOp36
 70
     0
102
RTVSPropertyOp37
 70
     0
102
RTVSPropertyOp38
 70
     0
102
RTVSPropertyOp39
 70
     0
102
RTVSPropertyOp40
 70
     0
102
RTVSPropertyOp41
 70
     0
102
RTVSPropertyOp42
 70
     0
102
RTVSPropertyOp43
 70
     0
102
RTVSPropertyOp44
 70
     0
102
RTVSPropertyOp45
 70
     0
102
RTVSPropertyOp46
 70
     0
102
RTVSPropertyOp47
 70
     0
102
RTVSPropertyOp48
 70
     0
102
RTVSPropertyOp49
 70
     0
102
RTVSPropertyOp50
 70
     0
102
RTVSPropertyOp51
 70
     0
102
RTVSPropertyOp52
 70
     0
102
RTVSPropertyOp53
 70
     0
102
RTVSPropertyOp54
 70
     0
102
RTVSPropertyOp55
 70
     0
102
RTVSPropertyOp56
 70
     0
102
RTVSPropertyOp57
 70
     0
102
RTVSPost2010Prop28
280
     0
102
RTVSPost2010PropOp28
 70
     0
102
RTVSPost2010Prop29
280
     1
102
RTVSPost2010PropOp29
 70
     0
102
RTVSPost2010Prop30
280
     1
102
RTVSPost2010PropOp30
 70
     0
102
RTVSPost2010Prop31
280
     0
102
RTVSPost2010PropOp31
 70
     0
102
RTVSPost2010Prop32
280
     0
102
RTVSPost2010PropOp32
 70
     0
102
RTVSPost2010Prop33
280
     0
102
RTVSPost2010PropOp33
 70
     0
102
RTVSPost2010Prop34
280
     0
102
RTVSPost2010PropOp34
 70
     0
102
RTVSPost2010Prop35
280
     0
102
RTVSPost2010PropOp35
 70
     0
102
RTVSPost2010Prop36
280
     0
102
RTVSPost2010PropOp36
 70
     0
102
RTVSPost2010Prop37
 90
       50
102
RTVSPost2010PropOp37
 70
     0
102
RTVSPost2010Prop38
140
0.0
102
RTVSPost2010PropOp38
 70
     0
102
RTVSPost2010Prop39
140
1.0
102
RTVSPost2010PropOp39
 70
     0
102
RTVSPost2010Prop40
 90
        0
102
RTVSPost2010PropOp40
 70
     0
102
RTVSPost2010Prop41ColorIndex
 90
       18
102
RTVSPost2010Prop41ColorRGB
 90
        0
102
RTVSPost2010PropOp41
 70
     0
102
RTVSPost2010Prop42
 90
       50
102
RTVSPost2010PropOp42
 70
     0
102
RTVSPost2010Prop43
 90
        3
102
RTVSPost2010PropOp43
 70
     0
102
RTVSPost2010Prop44ColorIndex
 90
        5
102
RTVSPost2010Prop44ColorRGB
 90
      255
102
RTVSPost2010PropOp44
 70
     0
102
RTVSPost2010Prop45
280
     0
102
RTVSPost2010PropOp45
 70
     0
102
RTVSPost2010Prop46
 90
       50
102
RTVSPost2010PropOp46
 70
     0
102
RTVSPost2010Prop47
 90
       50
102
RTVSPost2010PropOp47
 70
     0
102
RTVSPost2010Prop48
 90
       50
102
RTVSPost2010PropOp48
 70
     0
102
RTVSPost2010Prop49
280
     0
102
RTVSPost2010PropOp49
 70
     0
102
RTVSPost2010Prop50
 90
       50
102
RTVSPost2010PropOp50
 70
     0
102
RTVSPost2010Prop51ColorIndex
 90
      256
102
RTVSPost2010Prop51ColorRGB
 90
-16777216
102
RTVSPost2010PropOp51
 70
     0
102
RTVSPost2010Prop52
140
1.0
102
RTVSPost2010PropOp52
 70
     0
102
RTVSPost2010Prop53
 90
        2
102
RTVSPost2010PropOp53
 70
     0
102
RTVSPost2010Prop54
  1
strokes_ogs.tif
102
RTVSPost2010PropOp54
 70
     0
102
RTVSPost2010Prop55
280
     0
102
RTVSPost2010PropOp55
 70
     0
102
RTVSPost2010Prop56
140
1.0
102
RTVSPost2010PropOp56
 70
     0
102
RTVSPost2010Prop57
140
1.0
102
RTVSPost2010PropOp57
 70
     0
  0
XRECORD
  5
23C
102
{ACAD_REACTORS
330
23B
102
}
330
23B
100
AcDbXrecord
280
     1
102
RTVSPropertyOp0
 70
     1
102
RTVSPropertyOp1
 70
     1
102
RTVSPropertyOp2
 70
     1
102
RTVSPropertyOp3
 70
     1
102
RTVSPropertyOp4
 70
     1
102
RTVSPropertyOp5
 70
     1
102
RTVSPropertyOp6
 70
     1
102
RTVSPropertyOp7
 70
     1
102
RTVSPropertyOp8
 70
     1
102
RTVSPropertyOp9
 70
     1
102
RTVSPropertyOp10
 70
     1
102
RTVSPropertyOp11
 70
     1
102
RTVSPropertyOp12
 70
     1
102
RTVSPropertyOp13
 70
     1
102
RTVSPropertyOp14
 70
     1
102
RTVSPropertyOp15
 70
     1
102
RTVSPropertyOp16
 70
     1
102
RTVSPropertyOp17
 70
     1
102
RTVSPropertyOp18
 70
     1
102
RTVSPropertyOp19
 70
     1
102
RTVSPropertyOp20
 70
     1
102
RTVSPropertyOp21
 70
     1
102
RTVSPropertyOp22
 70
     1
102
RTVSPropertyOp23
 70
     1
102
RTVSPropertyOp24
 70
     1
102
RTVSPropertyOp25
 70
     1
102
RTVSPropertyOp26
 70
     1
102
RTVSPropertyOp27
 70
     1
102
RTVSPropertyOp28
 70
     1
102
RTVSPropertyOp29
 70
     1
102
RTVSPropertyOp30
 70
     1
102
RTVSPropertyOp31
 70
     1
102
RTVSPropertyOp32
 70
     1
102
RTVSPropertyOp33
 70
     1
102
RTVSPropertyOp34
 70
     1
102
RTVSPropertyOp35
 70
     1
102
RTVSPropertyOp36
 70
     1
102
RTVSPropertyOp37
 70
     1
102
RTVSPropertyOp38
 70
     1
102
RTVSPropertyOp39
 70
     1
102
RTVSPropertyOp40
 70
     1
102
RTVSPropertyOp41
 70
     1
102
RTVSPropertyOp42
 70
     1
102
RTVSPropertyOp43
 70
     1
102
RTVSPropertyOp44
 70
     1
102
RTVSPropertyOp45
 70
     1
102
RTVSPropertyOp46
 70
     1
102
RTVSPropertyOp47
 70
     1
102
RTVSPropertyOp48
 70
     1
102
RTVSPropertyOp49
 70
     1
102
RTVSPropertyOp50
 70
     1
102
RTVSPropertyOp51
 70
     0
102
RTVSPropertyOp52
 70
     0
102
RTVSPropertyOp53
 70
     1
102
RTVSPropertyOp54
 70
     1
102
RTVSPropertyOp55
 70
     1
102
RTVSPropertyOp56
 70
     1
102
RTVSPropertyOp57
 70
     1
102
RTVSPost2010Prop28
280
     0
102
RTVSPost2010PropOp28
 70
     1
102
RTVSPost2010Prop29
280
     1
102
RTVSPost2010PropOp29
 70
     1
102
RTVSPost2010Prop30
280
     1
102
RTVSPost2010PropOp30
 70
     1
102
RTVSPost2010Prop31
280
     0
102
RTVSPost2010PropOp31
 70
     1
102
RTVSPost2010Prop32
280
     0
102
RTVSPost2010PropOp32
 70
     1
102
RTVSPost2010Prop33
280
     0
102
RTVSPost2010PropOp33
 70
     1
102
RTVSPost2010Prop34
280
     0
102
RTVSPost2010PropOp34
 70
     1
102
RTVSPost2010Prop35
280
     0
102
RTVSPost2010PropOp35
 70
     1
102
RTVSPost2010Prop36
280
     0
102
RTVSPost2010PropOp36
 70
     1
102
RTVSPost2010Prop37
 90
       50
102
RTVSPost2010PropOp37
 70
     1
102
RTVSPost2010Prop38
140
0.0
102
RTVSPost2010PropOp38
 70
     1
102
RTVSPost2010Prop39
140
1.0
102
RTVSPost2010PropOp39
 70
     1
102
RTVSPost2010Prop40
 90
        0
102
RTVSPost2010PropOp40
 70
     1
102
RTVSPost2010Prop41ColorIndex
 90
       18
102
RTVSPost2010Prop41ColorRGB
 90
        0
102
RTVSPost2010PropOp41
 70
     1
102
RTVSPost2010Prop42
 90
       50
102
RTVSPost2010PropOp42
 70
     1
102
RTVSPost2010Prop43
 90
        3
102
RTVSPost2010PropOp43
 70
     1
102
RTVSPost2010Prop44ColorIndex
 90
        5
102
RTVSPost2010Prop44ColorRGB
 90
      255
102
RTVSPost2010PropOp44
 70
     1
102
RTVSPost2010Prop45
280
     0
102
RTVSPost2010PropOp45
 70
     1
102
RTVSPost2010Prop46
 90
       50
102
RTVSPost2010PropOp46
 70
     1
102
RTVSPost2010Prop47
 90
       50
102
RTVSPost2010PropOp47
 70
     1
102
RTVSPost2010Prop48
 90
       50
102
RTVSPost2010PropOp48
 70
     1
102
RTVSPost2010Prop49
280
     0
102
RTVSPost2010PropOp49
 70
     1
102
RTVSPost2010Prop50
 90
       50
102
RTVSPost2010PropOp50
 70
     1
102
RTVSPost2010Prop51ColorIndex
 90
      256
102
RTVSPost2010Prop51ColorRGB
 90
-16777216
102
RTVSPost2010PropOp51
 70
     0
102
RTVSPost2010Prop52
140
1.0
102
RTVSPost2010PropOp52
 70
     0
102
RTVSPost2010Prop53
 90
        2
102
RTVSPost2010PropOp53
 70
     1
102
RTVSPost2010Prop54
  1
strokes_ogs.tif
102
RTVSPost2010PropOp54
 70
     1
102
RTVSPost2010Prop55
280
     0
102
RTVSPost2010PropOp55
 70
     1
102
RTVSPost2010Prop56
140
1.0
102
RTVSPost2010PropOp56
 70
     1
102
RTVSPost2010Prop57
140
1.0
102
RTVSPost2010PropOp57
 70
     1
  0
XRECORD
  5
25A
102
{ACAD_REACTORS
330
259
102
}
330
259
100
AcDbXrecord
280
     1
102
RTVSPropertyOp0
 70
     1
102
RTVSPropertyOp1
 70
     1
102
RTVSPropertyOp2
 70
     1
102
RTVSPropertyOp3
 70
     1
102
RTVSPropertyOp4
 70
     1
102
RTVSPropertyOp5
 70
     1
102
RTVSPropertyOp6
 70
     1
102
RTVSPropertyOp7
 70
     1
102
RTVSPropertyOp8
 70
     1
102
RTVSPropertyOp9
 70
     1
102
RTVSPropertyOp10
 70
     1
102
RTVSPropertyOp11
 70
     1
102
RTVSPropertyOp12
 70
     1
102
RTVSPropertyOp13
 70
     1
102
RTVSPropertyOp14
 70
     1
102
RTVSPropertyOp15
 70
     1
102
RTVSPropertyOp16
 70
     1
102
RTVSPropertyOp17
 70
     1
102
RTVSPropertyOp18
 70
     1
102
RTVSPropertyOp19
 70
     1
102
RTVSPropertyOp20
 70
     1
102
RTVSPropertyOp21
 70
     1
102
RTVSPropertyOp22
 70
     1
102
RTVSPropertyOp23
 70
     1
102
RTVSPropertyOp24
 70
     1
102
RTVSPropertyOp25
 70
     1
102
RTVSPropertyOp26
 70
     1
102
RTVSPropertyOp27
 70
     1
102
RTVSPropertyOp28
 70
     1
102
RTVSPropertyOp29
 70
     1
102
RTVSPropertyOp30
 70
     1
102
RTVSPropertyOp31
 70
     1
102
RTVSPropertyOp32
 70
     1
102
RTVSPropertyOp33
 70
     1
102
RTVSPropertyOp34
 70
     1
102
RTVSPropertyOp35
 70
     1
102
RTVSPropertyOp36
 70
     1
102
RTVSPropertyOp37
 70
     1
102
RTVSPropertyOp38
 70
     1
102
RTVSPropertyOp39
 70
     1
102
RTVSPropertyOp40
 70
     1
102
RTVSPropertyOp41
 70
     1
102
RTVSPropertyOp42
 70
     1
102
RTVSPropertyOp43
 70
     1
102
RTVSPropertyOp44
 70
     1
102
RTVSPropertyOp45
 70
     1
102
RTVSPropertyOp46
 70
     1
102
RTVSPropertyOp47
 70
     1
102
RTVSPropertyOp48
 70
     1
102
RTVSPropertyOp49
 70
     1
102
RTVSPropertyOp50
 70
     1
102
RTVSPropertyOp51
 70
     0
102
RTVSPropertyOp52
 70
     0
102
RTVSPropertyOp53
 70
     1
102
RTVSPropertyOp54
 70
     1
102
RTVSPropertyOp55
 70
     1
102
RTVSPropertyOp56
 70
     1
102
RTVSPropertyOp57
 70
     1
102
RTVSPost2010Prop28
280
     0
102
RTVSPost2010PropOp28
 70
     1
102
RTVSPost2010Prop29
280
     1
102
RTVSPost2010PropOp29
 70
     1
102
RTVSPost2010Prop30
280
     1
102
RTVSPost2010PropOp30
 70
     1
102
RTVSPost2010Prop31
280
     0
102
RTVSPost2010PropOp31
 70
     1
102
RTVSPost2010Prop32
280
     0
102
RTVSPost2010PropOp32
 70
     1
102
RTVSPost2010Prop33
280
     0
102
RTVSPost2010PropOp33
 70
     1
102
RTVSPost2010Prop34
280
     0
102
RTVSPost2010PropOp34
 70
     1
102
RTVSPost2010Prop35
280
     0
102
RTVSPost2010PropOp35
 70
     1
102
RTVSPost2010Prop36
280
     0
102
RTVSPost2010PropOp36
 70
     1
102
RTVSPost2010Prop37
 90
       50
102
RTVSPost2010PropOp37
 70
     1
102
RTVSPost2010Prop38
140
0.0
102
RTVSPost2010PropOp38
 70
     1
102
RTVSPost2010Prop39
140
1.0
102
RTVSPost2010PropOp39
 70
     1
102
RTVSPost2010Prop40
 90
        0
102
RTVSPost2010PropOp40
 70
     1
102
RTVSPost2010Prop41ColorIndex
 90
       18
102
RTVSPost2010Prop41ColorRGB
 90
        0
102
RTVSPost2010PropOp41
 70
     1
102
RTVSPost2010Prop42
 90
       50
102
RTVSPost2010PropOp42
 70
     1
102
RTVSPost2010Prop43
 90
        3
102
RTVSPost2010PropOp43
 70
     1
102
RTVSPost2010Prop44ColorIndex
 90
        5
102
RTVSPost2010Prop44ColorRGB
 90
      255
102
RTVSPost2010PropOp44
 70
     1
102
RTVSPost2010Prop45
280
     0
102
RTVSPost2010PropOp45
 70
     1
102
RTVSPost2010Prop46
 90
       50
102
RTVSPost2010PropOp46
 70
     1
102
RTVSPost2010Prop47
 90
       50
102
RTVSPost2010PropOp47
 70
     1
102
RTVSPost2010Prop48
 90
       50
102
RTVSPost2010PropOp48
 70
     1
102
RTVSPost2010Prop49
280
     0
102
RTVSPost2010PropOp49
 70
     1
102
RTVSPost2010Prop50
 90
       50
102
RTVSPost2010PropOp50
 70
     1
102
RTVSPost2010Prop51ColorIndex
 90
      256
102
RTVSPost2010Prop51ColorRGB
 90
-16777216
102
RTVSPost2010PropOp51
 70
     0
102
RTVSPost2010Prop52
140
1.0
102
RTVSPost2010PropOp52
 70
     0
102
RTVSPost2010Prop53
 90
        2
102
RTVSPost2010PropOp53
 70
     1
102
RTVSPost2010Prop54
  1
strokes_ogs.tif
102
RTVSPost2010PropOp54
 70
     1
102
RTVSPost2010Prop55
280
     0
102
RTVSPost2010PropOp55
 70
     1
102
RTVSPost2010Prop56
140
1.0
102
RTVSPost2010PropOp56
 70
     1
102
RTVSPost2010Prop57
140
1.0
102
RTVSPost2010PropOp57
 70
     1
  0
XRECORD
  5
258
102
{ACAD_REACTORS
330
257
102
}
330
257
100
AcDbXrecord
280
     1
102
RTVSPropertyOp0
 70
     1
102
RTVSPropertyOp1
 70
     1
102
RTVSPropertyOp2
 70
     1
102
RTVSPropertyOp3
 70
     1
102
RTVSPropertyOp4
 70
     1
102
RTVSPropertyOp5
 70
     1
102
RTVSPropertyOp6
 70
     1
102
RTVSPropertyOp7
 70
     1
102
RTVSPropertyOp8
 70
     1
102
RTVSPropertyOp9
 70
     1
102
RTVSPropertyOp10
 70
     1
102
RTVSPropertyOp11
 70
     1
102
RTVSPropertyOp12
 70
     1
102
RTVSPropertyOp13
 70
     1
102
RTVSPropertyOp14
 70
     1
102
RTVSPropertyOp15
 70
     1
102
RTVSPropertyOp16
 70
     1
102
RTVSPropertyOp17
 70
     1
102
RTVSPropertyOp18
 70
     1
102
RTVSPropertyOp19
 70
     1
102
RTVSPropertyOp20
 70
     1
102
RTVSPropertyOp21
 70
     1
102
RTVSPropertyOp22
 70
     1
102
RTVSPropertyOp23
 70
     1
102
RTVSPropertyOp24
 70
     1
102
RTVSPropertyOp25
 70
     1
102
RTVSPropertyOp26
 70
     1
102
RTVSPropertyOp27
 70
     1
102
RTVSPropertyOp28
 70
     1
102
RTVSPropertyOp29
 70
     1
102
RTVSPropertyOp30
 70
     1
102
RTVSPropertyOp31
 70
     1
102
RTVSPropertyOp32
 70
     1
102
RTVSPropertyOp33
 70
     1
102
RTVSPropertyOp34
 70
     1
102
RTVSPropertyOp35
 70
     1
102
RTVSPropertyOp36
 70
     1
102
RTVSPropertyOp37
 70
     1
102
RTVSPropertyOp38
 70
     1
102
RTVSPropertyOp39
 70
     1
102
RTVSPropertyOp40
 70
     1
102
RTVSPropertyOp41
 70
     1
102
RTVSPropertyOp42
 70
     1
102
RTVSPropertyOp43
 70
     1
102
RTVSPropertyOp44
 70
     1
102
RTVSPropertyOp45
 70
     1
102
RTVSPropertyOp46
 70
     1
102
RTVSPropertyOp47
 70
     1
102
RTVSPropertyOp48
 70
     1
102
RTVSPropertyOp49
 70
     1
102
RTVSPropertyOp50
 70
     1
102
RTVSPropertyOp51
 70
     0
102
RTVSPropertyOp52
 70
     0
102
RTVSPropertyOp53
 70
     1
102
RTVSPropertyOp54
 70
     1
102
RTVSPropertyOp55
 70
     1
102
RTVSPropertyOp56
 70
     1
102
RTVSPropertyOp57
 70
     1
102
RTVSPost2010Prop28
280
     0
102
RTVSPost2010PropOp28
 70
     1
102
RTVSPost2010Prop29
280
     1
102
RTVSPost2010PropOp29
 70
     1
102
RTVSPost2010Prop30
280
     1
102
RTVSPost2010PropOp30
 70
     1
102
RTVSPost2010Prop31
280
     0
102
RTVSPost2010PropOp31
 70
     1
102
RTVSPost2010Prop32
280
     0
102
RTVSPost2010PropOp32
 70
     1
102
RTVSPost2010Prop33
280
     0
102
RTVSPost2010PropOp33
 70
     1
102
RTVSPost2010Prop34
280
     0
102
RTVSPost2010PropOp34
 70
     1
102
RTVSPost2010Prop35
280
     0
102
RTVSPost2010PropOp35
 70
     1
102
RTVSPost2010Prop36
280
     0
102
RTVSPost2010PropOp36
 70
     1
102
RTVSPost2010Prop37
 90
       50
102
RTVSPost2010PropOp37
 70
     1
102
RTVSPost2010Prop38
140
0.0
102
RTVSPost2010PropOp38
 70
     1
102
RTVSPost2010Prop39
140
1.0
102
RTVSPost2010PropOp39
 70
     1
102
RTVSPost2010Prop40
 90
        0
102
RTVSPost2010PropOp40
 70
     1
102
RTVSPost2010Prop41ColorIndex
 90
       18
102
RTVSPost2010Prop41ColorRGB
 90
        0
102
RTVSPost2010PropOp41
 70
     1
102
RTVSPost2010Prop42
 90
       50
102
RTVSPost2010PropOp42
 70
     1
102
RTVSPost2010Prop43
 90
        3
102
RTVSPost2010PropOp43
 70
     1
102
RTVSPost2010Prop44ColorIndex
 90
        5
102
RTVSPost2010Prop44ColorRGB
 90
      255
102
RTVSPost2010PropOp44
 70
     1
102
RTVSPost2010Prop45
280
     0
102
RTVSPost2010PropOp45
 70
     1
102
RTVSPost2010Prop46
 90
       50
102
RTVSPost2010PropOp46
 70
     1
102
RTVSPost2010Prop47
 90
       50
102
RTVSPost2010PropOp47
 70
     1
102
RTVSPost2010Prop48
 90
       50
102
RTVSPost2010PropOp48
 70
     1
102
RTVSPost2010Prop49
280
     0
102
RTVSPost2010PropOp49
 70
     1
102
RTVSPost2010Prop50
 90
       50
102
RTVSPost2010PropOp50
 70
     1
102
RTVSPost2010Prop51ColorIndex
 90
      256
102
RTVSPost2010Prop51ColorRGB
 90
-16777216
102
RTVSPost2010PropOp51
 70
     0
102
RTVSPost2010Prop52
140
1.0
102
RTVSPost2010PropOp52
 70
     0
102
RTVSPost2010Prop53
 90
        2
102
RTVSPost2010PropOp53
 70
     1
102
RTVSPost2010Prop54
  1
strokes_ogs.tif
102
RTVSPost2010PropOp54
 70
     1
102
RTVSPost2010Prop55
280
     0
102
RTVSPost2010PropOp55
 70
     1
102
RTVSPost2010Prop56
140
1.0
102
RTVSPost2010PropOp56
 70
     1
102
RTVSPost2010Prop57
140
1.0
102
RTVSPost2010PropOp57
 70
     1
  0
XRECORD
  5
252
102
{ACAD_REACTORS
330
251
102
}
330
251
100
AcDbXrecord
280
     1
102
RTVSPropertyOp0
 70
     1
102
RTVSPropertyOp1
 70
     1
102
RTVSPropertyOp2
 70
     1
102
RTVSPropertyOp3
 70
     1
102
RTVSPropertyOp4
 70
     1
102
RTVSPropertyOp5
 70
     1
102
RTVSPropertyOp6
 70
     1
102
RTVSPropertyOp7
 70
     1
102
RTVSPropertyOp8
 70
     1
102
RTVSPropertyOp9
 70
     1
102
RTVSPropertyOp10
 70
     1
102
RTVSPropertyOp11
 70
     1
102
RTVSPropertyOp12
 70
     1
102
RTVSPropertyOp13
 70
     1
102
RTVSPropertyOp14
 70
     1
102
RTVSPropertyOp15
 70
     1
102
RTVSPropertyOp16
 70
     1
102
RTVSPropertyOp17
 70
     1
102
RTVSPropertyOp18
 70
     1
102
RTVSPropertyOp19
 70
     1
102
RTVSPropertyOp20
 70
     1
102
RTVSPropertyOp21
 70
     1
102
RTVSPropertyOp22
 70
     1
102
RTVSPropertyOp23
 70
     1
102
RTVSPropertyOp24
 70
     1
102
RTVSPropertyOp25
 70
     1
102
RTVSPropertyOp26
 70
     1
102
RTVSPropertyOp27
 70
     1
102
RTVSPropertyOp28
 70
     1
102
RTVSPropertyOp29
 70
     1
102
RTVSPropertyOp30
 70
     1
102
RTVSPropertyOp31
 70
     1
102
RTVSPropertyOp32
 70
     1
102
RTVSPropertyOp33
 70
     1
102
RTVSPropertyOp34
 70
     1
102
RTVSPropertyOp35
 70
     1
102
RTVSPropertyOp36
 70
     1
102
RTVSPropertyOp37
 70
     1
102
RTVSPropertyOp38
 70
     1
102
RTVSPropertyOp39
 70
     1
102
RTVSPropertyOp40
 70
     1
102
RTVSPropertyOp41
 70
     1
102
RTVSPropertyOp42
 70
     1
102
RTVSPropertyOp43
 70
     1
102
RTVSPropertyOp44
 70
     1
102
RTVSPropertyOp45
 70
     1
102
RTVSPropertyOp46
 70
     1
102
RTVSPropertyOp47
 70
     1
102
RTVSPropertyOp48
 70
     1
102
RTVSPropertyOp49
 70
     1
102
RTVSPropertyOp50
 70
     1
102
RTVSPropertyOp51
 70
     0
102
RTVSPropertyOp52
 70
     0
102
RTVSPropertyOp53
 70
     1
102
RTVSPropertyOp54
 70
     1
102
RTVSPropertyOp55
 70
     1
102
RTVSPropertyOp56
 70
     1
102
RTVSPropertyOp57
 70
     1
102
RTVSPost2010Prop28
280
     0
102
RTVSPost2010PropOp28
 70
     1
102
RTVSPost2010Prop29
280
     1
102
RTVSPost2010PropOp29
 70
     1
102
RTVSPost2010Prop30
280
     1
102
RTVSPost2010PropOp30
 70
     1
102
RTVSPost2010Prop31
280
     0
102
RTVSPost2010PropOp31
 70
     1
102
RTVSPost2010Prop32
280
     0
102
RTVSPost2010PropOp32
 70
     1
102
RTVSPost2010Prop33
280
     0
102
RTVSPost2010PropOp33
 70
     1
102
RTVSPost2010Prop34
280
     0
102
RTVSPost2010PropOp34
 70
     1
102
RTVSPost2010Prop35
280
     0
102
RTVSPost2010PropOp35
 70
     1
102
RTVSPost2010Prop36
280
     0
102
RTVSPost2010PropOp36
 70
     1
102
RTVSPost2010Prop37
 90
       50
102
RTVSPost2010PropOp37
 70
     1
102
RTVSPost2010Prop38
140
0.0
102
RTVSPost2010PropOp38
 70
     1
102
RTVSPost2010Prop39
140
1.0
102
RTVSPost2010PropOp39
 70
     1
102
RTVSPost2010Prop40
 90
        0
102
RTVSPost2010PropOp40
 70
     1
102
RTVSPost2010Prop41ColorIndex
 90
       18
102
RTVSPost2010Prop41ColorRGB
 90
        0
102
RTVSPost2010PropOp41
 70
     1
102
RTVSPost2010Prop42
 90
       50
102
RTVSPost2010PropOp42
 70
     1
102
RTVSPost2010Prop43
 90
        3
102
RTVSPost2010PropOp43
 70
     1
102
RTVSPost2010Prop44ColorIndex
 90
        5
102
RTVSPost2010Prop44ColorRGB
 90
      255
102
RTVSPost2010PropOp44
 70
     1
102
RTVSPost2010Prop45
280
     0
102
RTVSPost2010PropOp45
 70
     1
102
RTVSPost2010Prop46
 90
       50
102
RTVSPost2010PropOp46
 70
     1
102
RTVSPost2010Prop47
 90
       50
102
RTVSPost2010PropOp47
 70
     1
102
RTVSPost2010Prop48
 90
       50
102
RTVSPost2010PropOp48
 70
     1
102
RTVSPost2010Prop49
280
     0
102
RTVSPost2010PropOp49
 70
     1
102
RTVSPost2010Prop50
 90
       50
102
RTVSPost2010PropOp50
 70
     1
102
RTVSPost2010Prop51ColorIndex
 90
      256
102
RTVSPost2010Prop51ColorRGB
 90
-16777216
102
RTVSPost2010PropOp51
 70
     0
102
RTVSPost2010Prop52
140
1.0
102
RTVSPost2010PropOp52
 70
     0
102
RTVSPost2010Prop53
 90
        2
102
RTVSPost2010PropOp53
 70
     1
102
RTVSPost2010Prop54
  1
strokes_ogs.tif
102
RTVSPost2010PropOp54
 70
     1
102
RTVSPost2010Prop55
280
     0
102
RTVSPost2010PropOp55
 70
     1
102
RTVSPost2010Prop56
140
1.0
102
RTVSPost2010PropOp56
 70
     1
102
RTVSPost2010Prop57
140
1.0
102
RTVSPost2010PropOp57
 70
     1
  0
XRECORD
  5
254
102
{ACAD_REACTORS
330
253
102
}
330
253
100
AcDbXrecord
280
     1
102
RTVSPropertyOp0
 70
     1
102
RTVSPropertyOp1
 70
     1
102
RTVSPropertyOp2
 70
     1
102
RTVSPropertyOp3
 70
     1
102
RTVSPropertyOp4
 70
     1
102
RTVSPropertyOp5
 70
     1
102
RTVSPropertyOp6
 70
     1
102
RTVSPropertyOp7
 70
     1
102
RTVSPropertyOp8
 70
     1
102
RTVSPropertyOp9
 70
     1
102
RTVSPropertyOp10
 70
     1
102
RTVSPropertyOp11
 70
     1
102
RTVSPropertyOp12
 70
     1
102
RTVSPropertyOp13
 70
     1
102
RTVSPropertyOp14
 70
     1
102
RTVSPropertyOp15
 70
     1
102
RTVSPropertyOp16
 70
     1
102
RTVSPropertyOp17
 70
     1
102
RTVSPropertyOp18
 70
     1
102
RTVSPropertyOp19
 70
     1
102
RTVSPropertyOp20
 70
     1
102
RTVSPropertyOp21
 70
     1
102
RTVSPropertyOp22
 70
     1
102
RTVSPropertyOp23
 70
     1
102
RTVSPropertyOp24
 70
     1
102
RTVSPropertyOp25
 70
     1
102
RTVSPropertyOp26
 70
     1
102
RTVSPropertyOp27
 70
     1
102
RTVSPropertyOp28
 70
     1
102
RTVSPropertyOp29
 70
     1
102
RTVSPropertyOp30
 70
     1
102
RTVSPropertyOp31
 70
     1
102
RTVSPropertyOp32
 70
     1
102
RTVSPropertyOp33
 70
     1
102
RTVSPropertyOp34
 70
     1
102
RTVSPropertyOp35
 70
     1
102
RTVSPropertyOp36
 70
     1
102
RTVSPropertyOp37
 70
     1
102
RTVSPropertyOp38
 70
     1
102
RTVSPropertyOp39
 70
     1
102
RTVSPropertyOp40
 70
     1
102
RTVSPropertyOp41
 70
     1
102
RTVSPropertyOp42
 70
     1
102
RTVSPropertyOp43
 70
     1
102
RTVSPropertyOp44
 70
     1
102
RTVSPropertyOp45
 70
     1
102
RTVSPropertyOp46
 70
     1
102
RTVSPropertyOp47
 70
     1
102
RTVSPropertyOp48
 70
     1
102
RTVSPropertyOp49
 70
     1
102
RTVSPropertyOp50
 70
     1
102
RTVSPropertyOp51
 70
     0
102
RTVSPropertyOp52
 70
     0
102
RTVSPropertyOp53
 70
     1
102
RTVSPropertyOp54
 70
     1
102
RTVSPropertyOp55
 70
     1
102
RTVSPropertyOp56
 70
     1
102
RTVSPropertyOp57
 70
     1
102
RTVSPost2010Prop28
280
     0
102
RTVSPost2010PropOp28
 70
     1
102
RTVSPost2010Prop29
280
     1
102
RTVSPost2010PropOp29
 70
     1
102
RTVSPost2010Prop30
280
     1
102
RTVSPost2010PropOp30
 70
     1
102
RTVSPost2010Prop31
280
     0
102
RTVSPost2010PropOp31
 70
     1
102
RTVSPost2010Prop32
280
     0
102
RTVSPost2010PropOp32
 70
     1
102
RTVSPost2010Prop33
280
     0
102
RTVSPost2010PropOp33
 70
     1
102
RTVSPost2010Prop34
280
     0
102
RTVSPost2010PropOp34
 70
     1
102
RTVSPost2010Prop35
280
     0
102
RTVSPost2010PropOp35
 70
     1
102
RTVSPost2010Prop36
280
     0
102
RTVSPost2010PropOp36
 70
     1
102
RTVSPost2010Prop37
 90
       50
102
RTVSPost2010PropOp37
 70
     1
102
RTVSPost2010Prop38
140
0.0
102
RTVSPost2010PropOp38
 70
     1
102
RTVSPost2010Prop39
140
1.0
102
RTVSPost2010PropOp39
 70
     1
102
RTVSPost2010Prop40
 90
        0
102
RTVSPost2010PropOp40
 70
     1
102
RTVSPost2010Prop41ColorIndex
 90
       18
102
RTVSPost2010Prop41ColorRGB
 90
        0
102
RTVSPost2010PropOp41
 70
     1
102
RTVSPost2010Prop42
 90
       50
102
RTVSPost2010PropOp42
 70
     1
102
RTVSPost2010Prop43
 90
        3
102
RTVSPost2010PropOp43
 70
     1
102
RTVSPost2010Prop44ColorIndex
 90
        5
102
RTVSPost2010Prop44ColorRGB
 90
      255
102
RTVSPost2010PropOp44
 70
     1
102
RTVSPost2010Prop45
280
     0
102
RTVSPost2010PropOp45
 70
     1
102
RTVSPost2010Prop46
 90
       50
102
RTVSPost2010PropOp46
 70
     1
102
RTVSPost2010Prop47
 90
       50
102
RTVSPost2010PropOp47
 70
     1
102
RTVSPost2010Prop48
 90
       50
102
RTVSPost2010PropOp48
 70
     1
102
RTVSPost2010Prop49
280
     0
102
RTVSPost2010PropOp49
 70
     1
102
RTVSPost2010Prop50
 90
       50
102
RTVSPost2010PropOp50
 70
     1
102
RTVSPost2010Prop51ColorIndex
 90
      256
102
RTVSPost2010Prop51ColorRGB
 90
-16777216
102
RTVSPost2010PropOp51
 70
     0
102
RTVSPost2010Prop52
140
1.0
102
RTVSPost2010PropOp52
 70
     0
102
RTVSPost2010Prop53
 90
        2
102
RTVSPost2010PropOp53
 70
     1
102
RTVSPost2010Prop54
  1
strokes_ogs.tif
102
RTVSPost2010PropOp54
 70
     1
102
RTVSPost2010Prop55
280
     0
102
RTVSPost2010PropOp55
 70
     1
102
RTVSPost2010Prop56
140
1.0
102
RTVSPost2010PropOp56
 70
     1
102
RTVSPost2010Prop57
140
1.0
102
RTVSPost2010PropOp57
 70
     1
  0
XRECORD
  5
244
102
{ACAD_REACTORS
330
243
102
}
330
243
100
AcDbXrecord
280
     1
102
RTVSPropertyOp0
 70
     1
102
RTVSPropertyOp1
 70
     1
102
RTVSPropertyOp2
 70
     1
102
RTVSPropertyOp3
 70
     1
102
RTVSPropertyOp4
 70
     1
102
RTVSPropertyOp5
 70
     1
102
RTVSPropertyOp6
 70
     1
102
RTVSPropertyOp7
 70
     1
102
RTVSPropertyOp8
 70
     1
102
RTVSPropertyOp9
 70
     1
102
RTVSPropertyOp10
 70
     1
102
RTVSPropertyOp11
 70
     1
102
RTVSPropertyOp12
 70
     1
102
RTVSPropertyOp13
 70
     1
102
RTVSPropertyOp14
 70
     1
102
RTVSPropertyOp15
 70
     1
102
RTVSPropertyOp16
 70
     1
102
RTVSPropertyOp17
 70
     1
102
RTVSPropertyOp18
 70
     1
102
RTVSPropertyOp19
 70
     1
102
RTVSPropertyOp20
 70
     1
102
RTVSPropertyOp21
 70
     1
102
RTVSPropertyOp22
 70
     1
102
RTVSPropertyOp23
 70
     1
102
RTVSPropertyOp24
 70
     1
102
RTVSPropertyOp25
 70
     1
102
RTVSPropertyOp26
 70
     1
102
RTVSPropertyOp27
 70
     1
102
RTVSPropertyOp28
 70
     1
102
RTVSPropertyOp29
 70
     1
102
RTVSPropertyOp30
 70
     1
102
RTVSPropertyOp31
 70
     1
102
RTVSPropertyOp32
 70
     1
102
RTVSPropertyOp33
 70
     1
102
RTVSPropertyOp34
 70
     1
102
RTVSPropertyOp35
 70
     1
102
RTVSPropertyOp36
 70
     1
102
RTVSPropertyOp37
 70
     1
102
RTVSPropertyOp38
 70
     1
102
RTVSPropertyOp39
 70
     1
102
RTVSPropertyOp40
 70
     1
102
RTVSPropertyOp41
 70
     1
102
RTVSPropertyOp42
 70
     1
102
RTVSPropertyOp43
 70
     1
102
RTVSPropertyOp44
 70
     1
102
RTVSPropertyOp45
 70
     1
102
RTVSPropertyOp46
 70
     1
102
RTVSPropertyOp47
 70
     1
102
RTVSPropertyOp48
 70
     1
102
RTVSPropertyOp49
 70
     1
102
RTVSPropertyOp50
 70
     1
102
RTVSPropertyOp51
 70
     0
102
RTVSPropertyOp52
 70
     0
102
RTVSPropertyOp53
 70
     1
102
RTVSPropertyOp54
 70
     1
102
RTVSPropertyOp55
 70
     1
102
RTVSPropertyOp56
 70
     1
102
RTVSPropertyOp57
 70
     1
102
RTVSPost2010Prop28
280
     0
102
RTVSPost2010PropOp28
 70
     1
102
RTVSPost2010Prop29
280
     1
102
RTVSPost2010PropOp29
 70
     1
102
RTVSPost2010Prop30
280
     1
102
RTVSPost2010PropOp30
 70
     1
102
RTVSPost2010Prop31
280
     0
102
RTVSPost2010PropOp31
 70
     1
102
RTVSPost2010Prop32
280
     0
102
RTVSPost2010PropOp32
 70
     1
102
RTVSPost2010Prop33
280
     0
102
RTVSPost2010PropOp33
 70
     1
102
RTVSPost2010Prop34
280
     0
102
RTVSPost2010PropOp34
 70
     1
102
RTVSPost2010Prop35
280
     0
102
RTVSPost2010PropOp35
 70
     1
102
RTVSPost2010Prop36
280
     0
102
RTVSPost2010PropOp36
 70
     1
102
RTVSPost2010Prop37
 90
       50
102
RTVSPost2010PropOp37
 70
     1
102
RTVSPost2010Prop38
140
0.0
102
RTVSPost2010PropOp38
 70
     1
102
RTVSPost2010Prop39
140
1.0
102
RTVSPost2010PropOp39
 70
     1
102
RTVSPost2010Prop40
 90
        0
102
RTVSPost2010PropOp40
 70
     1
102
RTVSPost2010Prop41ColorIndex
 90
       18
102
RTVSPost2010Prop41ColorRGB
 90
        0
102
RTVSPost2010PropOp41
 70
     1
102
RTVSPost2010Prop42
 90
       50
102
RTVSPost2010PropOp42
 70
     1
102
RTVSPost2010Prop43
 90
        3
102
RTVSPost2010PropOp43
 70
     1
102
RTVSPost2010Prop44ColorIndex
 90
        5
102
RTVSPost2010Prop44ColorRGB
 90
      255
102
RTVSPost2010PropOp44
 70
     1
102
RTVSPost2010Prop45
280
     0
102
RTVSPost2010PropOp45
 70
     1
102
RTVSPost2010Prop46
 90
       50
102
RTVSPost2010PropOp46
 70
     1
102
RTVSPost2010Prop47
 90
       50
102
RTVSPost2010PropOp47
 70
     1
102
RTVSPost2010Prop48
 90
       50
102
RTVSPost2010PropOp48
 70
     1
102
RTVSPost2010Prop49
280
     0
102
RTVSPost2010PropOp49
 70
     1
102
RTVSPost2010Prop50
 90
       50
102
RTVSPost2010PropOp50
 70
     1
102
RTVSPost2010Prop51ColorIndex
 90
      256
102
RTVSPost2010Prop51ColorRGB
 90
-16777216
102
RTVSPost2010PropOp51
 70
     0
102
RTVSPost2010Prop52
140
1.0
102
RTVSPost2010PropOp52
 70
     0
102
RTVSPost2010Prop53
 90
        2
102
RTVSPost2010PropOp53
 70
     1
102
RTVSPost2010Prop54
  1
strokes_ogs.tif
102
RTVSPost2010PropOp54
 70
     1
102
RTVSPost2010Prop55
280
     0
102
RTVSPost2010PropOp55
 70
     1
102
RTVSPost2010Prop56
140
1.0
102
RTVSPost2010PropOp56
 70
     1
102
RTVSPost2010Prop57
140
1.0
102
RTVSPost2010PropOp57
 70
     1
  0
XRECORD
  5
236
102
{ACAD_REACTORS
330
235
102
}
330
235
100
AcDbXrecord
280
     1
102
RTVSPropertyOp0
 70
     1
102
RTVSPropertyOp1
 70
     1
102
RTVSPropertyOp2
 70
     1
102
RTVSPropertyOp3
 70
     1
102
RTVSPropertyOp4
 70
     1
102
RTVSPropertyOp5
 70
     1
102
RTVSPropertyOp6
 70
     1
102
RTVSPropertyOp7
 70
     1
102
RTVSPropertyOp8
 70
     1
102
RTVSPropertyOp9
 70
     1
102
RTVSPropertyOp10
 70
     1
102
RTVSPropertyOp11
 70
     1
102
RTVSPropertyOp12
 70
     1
102
RTVSPropertyOp13
 70
     1
102
RTVSPropertyOp14
 70
     1
102
RTVSPropertyOp15
 70
     1
102
RTVSPropertyOp16
 70
     1
102
RTVSPropertyOp17
 70
     1
102
RTVSPropertyOp18
 70
     1
102
RTVSPropertyOp19
 70
     1
102
RTVSPropertyOp20
 70
     1
102
RTVSPropertyOp21
 70
     1
102
RTVSPropertyOp22
 70
     1
102
RTVSPropertyOp23
 70
     1
102
RTVSPropertyOp24
 70
     1
102
RTVSPropertyOp25
 70
     1
102
RTVSPropertyOp26
 70
     1
102
RTVSPropertyOp27
 70
     1
102
RTVSPropertyOp28
 70
     1
102
RTVSPropertyOp29
 70
     1
102
RTVSPropertyOp30
 70
     1
102
RTVSPropertyOp31
 70
     1
102
RTVSPropertyOp32
 70
     1
102
RTVSPropertyOp33
 70
     1
102
RTVSPropertyOp34
 70
     1
102
RTVSPropertyOp35
 70
     1
102
RTVSPropertyOp36
 70
     1
102
RTVSPropertyOp37
 70
     1
102
RTVSPropertyOp38
 70
     1
102
RTVSPropertyOp39
 70
     1
102
RTVSPropertyOp40
 70
     1
102
RTVSPropertyOp41
 70
     1
102
RTVSPropertyOp42
 70
     1
102
RTVSPropertyOp43
 70
     1
102
RTVSPropertyOp44
 70
     1
102
RTVSPropertyOp45
 70
     1
102
RTVSPropertyOp46
 70
     1
102
RTVSPropertyOp47
 70
     1
102
RTVSPropertyOp48
 70
     1
102
RTVSPropertyOp49
 70
     1
102
RTVSPropertyOp50
 70
     1
102
RTVSPropertyOp51
 70
     0
102
RTVSPropertyOp52
 70
     0
102
RTVSPropertyOp53
 70
     1
102
RTVSPropertyOp54
 70
     1
102
RTVSPropertyOp55
 70
     1
102
RTVSPropertyOp56
 70
     1
102
RTVSPropertyOp57
 70
     1
102
RTVSPost2010Prop28
280
     0
102
RTVSPost2010PropOp28
 70
     1
102
RTVSPost2010Prop29
280
     1
102
RTVSPost2010PropOp29
 70
     1
102
RTVSPost2010Prop30
280
     1
102
RTVSPost2010PropOp30
 70
     1
102
RTVSPost2010Prop31
280
     0
102
RTVSPost2010PropOp31
 70
     1
102
RTVSPost2010Prop32
280
     0
102
RTVSPost2010PropOp32
 70
     1
102
RTVSPost2010Prop33
280
     0
102
RTVSPost2010PropOp33
 70
     1
102
RTVSPost2010Prop34
280
     0
102
RTVSPost2010PropOp34
 70
     1
102
RTVSPost2010Prop35
280
     0
102
RTVSPost2010PropOp35
 70
     1
102
RTVSPost2010Prop36
280
     0
102
RTVSPost2010PropOp36
 70
     1
102
RTVSPost2010Prop37
 90
       50
102
RTVSPost2010PropOp37
 70
     1
102
RTVSPost2010Prop38
140
0.0
102
RTVSPost2010PropOp38
 70
     1
102
RTVSPost2010Prop39
140
1.0
102
RTVSPost2010PropOp39
 70
     1
102
RTVSPost2010Prop40
 90
        0
102
RTVSPost2010PropOp40
 70
     1
102
RTVSPost2010Prop41ColorIndex
 90
       18
102
RTVSPost2010Prop41ColorRGB
 90
        0
102
RTVSPost2010PropOp41
 70
     1
102
RTVSPost2010Prop42
 90
       50
102
RTVSPost2010PropOp42
 70
     1
102
RTVSPost2010Prop43
 90
        3
102
RTVSPost2010PropOp43
 70
     1
102
RTVSPost2010Prop44ColorIndex
 90
        5
102
RTVSPost2010Prop44ColorRGB
 90
      255
102
RTVSPost2010PropOp44
 70
     1
102
RTVSPost2010Prop45
280
     0
102
RTVSPost2010PropOp45
 70
     1
102
RTVSPost2010Prop46
 90
       50
102
RTVSPost2010PropOp46
 70
     1
102
RTVSPost2010Prop47
 90
       50
102
RTVSPost2010PropOp47
 70
     1
102
RTVSPost2010Prop48
 90
       50
102
RTVSPost2010PropOp48
 70
     1
102
RTVSPost2010Prop49
280
     0
102
RTVSPost2010PropOp49
 70
     1
102
RTVSPost2010Prop50
 90
       50
102
RTVSPost2010PropOp50
 70
     1
102
RTVSPost2010Prop51ColorIndex
 90
      256
102
RTVSPost2010Prop51ColorRGB
 90
-16777216
102
RTVSPost2010PropOp51
 70
     0
102
RTVSPost2010Prop52
140
1.0
102
RTVSPost2010PropOp52
 70
     0
102
RTVSPost2010Prop53
 90
        2
102
RTVSPost2010PropOp53
 70
     1
102
RTVSPost2010Prop54
  1
strokes_ogs.tif
102
RTVSPost2010PropOp54
 70
     1
102
RTVSPost2010Prop55
280
     0
102
RTVSPost2010PropOp55
 70
     1
102
RTVSPost2010Prop56
140
1.0
102
RTVSPost2010PropOp56
 70
     1
102
RTVSPost2010Prop57
140
1.0
102
RTVSPost2010PropOp57
 70
     1
  0
XRECORD
  5
256
102
{ACAD_REACTORS
330
255
102
}
330
255
100
AcDbXrecord
280
     1
102
RTVSPropertyOp0
 70
     1
102
RTVSPropertyOp1
 70
     1
102
RTVSPropertyOp2
 70
     1
102
RTVSPropertyOp3
 70
     1
102
RTVSPropertyOp4
 70
     1
102
RTVSPropertyOp5
 70
     1
102
RTVSPropertyOp6
 70
     1
102
RTVSPropertyOp7
 70
     1
102
RTVSPropertyOp8
 70
     1
102
RTVSPropertyOp9
 70
     1
102
RTVSPropertyOp10
 70
     1
102
RTVSPropertyOp11
 70
     1
102
RTVSPropertyOp12
 70
     1
102
RTVSPropertyOp13
 70
     1
102
RTVSPropertyOp14
 70
     1
102
RTVSPropertyOp15
 70
     1
102
RTVSPropertyOp16
 70
     1
102
RTVSPropertyOp17
 70
     1
102
RTVSPropertyOp18
 70
     1
102
RTVSPropertyOp19
 70
     1
102
RTVSPropertyOp20
 70
     1
102
RTVSPropertyOp21
 70
     1
102
RTVSPropertyOp22
 70
     1
102
RTVSPropertyOp23
 70
     1
102
RTVSPropertyOp24
 70
     1
102
RTVSPropertyOp25
 70
     1
102
RTVSPropertyOp26
 70
     1
102
RTVSPropertyOp27
 70
     1
102
RTVSPropertyOp28
 70
     1
102
RTVSPropertyOp29
 70
     1
102
RTVSPropertyOp30
 70
     1
102
RTVSPropertyOp31
 70
     1
102
RTVSPropertyOp32
 70
     1
102
RTVSPropertyOp33
 70
     1
102
RTVSPropertyOp34
 70
     1
102
RTVSPropertyOp35
 70
     1
102
RTVSPropertyOp36
 70
     1
102
RTVSPropertyOp37
 70
     1
102
RTVSPropertyOp38
 70
     1
102
RTVSPropertyOp39
 70
     1
102
RTVSPropertyOp40
 70
     1
102
RTVSPropertyOp41
 70
     1
102
RTVSPropertyOp42
 70
     1
102
RTVSPropertyOp43
 70
     1
102
RTVSPropertyOp44
 70
     1
102
RTVSPropertyOp45
 70
     1
102
RTVSPropertyOp46
 70
     1
102
RTVSPropertyOp47
 70
     1
102
RTVSPropertyOp48
 70
     1
102
RTVSPropertyOp49
 70
     1
102
RTVSPropertyOp50
 70
     1
102
RTVSPropertyOp51
 70
     0
102
RTVSPropertyOp52
 70
     0
102
RTVSPropertyOp53
 70
     1
102
RTVSPropertyOp54
 70
     1
102
RTVSPropertyOp55
 70
     1
102
RTVSPropertyOp56
 70
     1
102
RTVSPropertyOp57
 70
     1
102
RTVSPost2010Prop28
280
     0
102
RTVSPost2010PropOp28
 70
     1
102
RTVSPost2010Prop29
280
     1
102
RTVSPost2010PropOp29
 70
     1
102
RTVSPost2010Prop30
280
     1
102
RTVSPost2010PropOp30
 70
     1
102
RTVSPost2010Prop31
280
     0
102
RTVSPost2010PropOp31
 70
     1
102
RTVSPost2010Prop32
280
     0
102
RTVSPost2010PropOp32
 70
     1
102
RTVSPost2010Prop33
280
     0
102
RTVSPost2010PropOp33
 70
     1
102
RTVSPost2010Prop34
280
     0
102
RTVSPost2010PropOp34
 70
     1
102
RTVSPost2010Prop35
280
     0
102
RTVSPost2010PropOp35
 70
     1
102
RTVSPost2010Prop36
280
     0
102
RTVSPost2010PropOp36
 70
     1
102
RTVSPost2010Prop37
 90
       50
102
RTVSPost2010PropOp37
 70
     1
102
RTVSPost2010Prop38
140
0.0
102
RTVSPost2010PropOp38
 70
     1
102
RTVSPost2010Prop39
140
1.0
102
RTVSPost2010PropOp39
 70
     1
102
RTVSPost2010Prop40
 90
        0
102
RTVSPost2010PropOp40
 70
     1
102
RTVSPost2010Prop41ColorIndex
 90
       18
102
RTVSPost2010Prop41ColorRGB
 90
        0
102
RTVSPost2010PropOp41
 70
     1
102
RTVSPost2010Prop42
 90
       50
102
RTVSPost2010PropOp42
 70
     1
102
RTVSPost2010Prop43
 90
        3
102
RTVSPost2010PropOp43
 70
     1
102
RTVSPost2010Prop44ColorIndex
 90
        5
102
RTVSPost2010Prop44ColorRGB
 90
      255
102
RTVSPost2010PropOp44
 70
     1
102
RTVSPost2010Prop45
280
     0
102
RTVSPost2010PropOp45
 70
     1
102
RTVSPost2010Prop46
 90
       50
102
RTVSPost2010PropOp46
 70
     1
102
RTVSPost2010Prop47
 90
       50
102
RTVSPost2010PropOp47
 70
     1
102
RTVSPost2010Prop48
 90
       50
102
RTVSPost2010PropOp48
 70
     1
102
RTVSPost2010Prop49
280
     0
102
RTVSPost2010PropOp49
 70
     1
102
RTVSPost2010Prop50
 90
       50
102
RTVSPost2010PropOp50
 70
     1
102
RTVSPost2010Prop51ColorIndex
 90
      256
102
RTVSPost2010Prop51ColorRGB
 90
-16777216
102
RTVSPost2010PropOp51
 70
     0
102
RTVSPost2010Prop52
140
1.0
102
RTVSPost2010PropOp52
 70
     0
102
RTVSPost2010Prop53
 90
        2
102
RTVSPost2010PropOp53
 70
     1
102
RTVSPost2010Prop54
  1
strokes_ogs.tif
102
RTVSPost2010PropOp54
 70
     1
102
RTVSPost2010Prop55
280
     0
102
RTVSPost2010PropOp55
 70
     1
102
RTVSPost2010Prop56
140
1.0
102
RTVSPost2010PropOp56
 70
     1
102
RTVSPost2010Prop57
140
1.0
102
RTVSPost2010PropOp57
 70
     1
  0
ENDSEC
  0
EOF
